Oops, an error
Loading. Please wait.

Runaway bass

version 3
version 3

Whole song

Interactive

175 views 3 this week
no commentswrite comment
1 2 3 4 5
3 more votes to show rating
add to favorites
×
Save as Personal and add changes to this tab that will be seen only by you. Learn more ›
×
You can save this tab as Personal to edit and correct it or add notes. All changes will be seen only by you. Learn more »
launch autoscroll
font size
0
reset
guitar tuner
backing track
0:00
0:00
edit
Autoscroll
slow
fast
+/-
esc
set tempo
stop
Author
Difficulty
(Info)

Tabbed by: BASSteve

Tuning: EADG

Time signature: 4/4

r = rest (listen for duration)
/ = slide (low to high)
\ = slide (high to low)
()= note inside parenthesis not plucked or hammered on
{}= note inside pointed parenthesis still ringing from previous measure
||= measure gets repeated (see number of times above measure, e.g. 4x)

*My tabs are meant to be read in conjunction with listening to the song.
In other words, there are no specific notations to account for note/rest duration. 
However, you will find that I've made an attempt to strategically space the notes 
and rests within their respective measures in order to represent the appropriate 
durations.



INTRO 

G|--------------------------------|--------------------------------|
D|--------------------------------|--------------------------------|
A|--------------------------------|--------------------------------|
E|r-------------------------------|r-------------------------------|



|--------------------------------|--------------------------------|
|--------------------------------|--------------------------------|
|--------------------------------|--------------------------------|
|r-------------------------------|r---------------------------0---|


  2x
||--------------------------------|--------------------------------|
||--------------------------------|--------------------------------|
||--------------------------------|--------------------------------|
||5---r---------------------------|----------------------------0---|



|--------------------------------|--------------------------------||
|--------------------------------|--------------------------------||
|--------------------------------|--------------------------------||
|3---r---------------------------|----------------------------0---||


VERSE 1

|--------------------------------|--------------------------------|
|--------------------------------|--------------------------------|
|--------------------------------|--------------------------------|
|5-------------------------------|{5}-------------------------0---|



|--------------------------------|--------------------------------|
|--------------------------------|--------------------------------|
|--------------------------------|--------------------------------|
|3---r---------------------------|----------------------------3---|



|--------------------------------|--------------------------------|
|--------------------------------|--------------------------------|
|--------------------------------|--------------------------------|
|0---r-----------------------0---|1---r-------1---3---r-------3---|



|--------------------------------|--------------------------------|
|--------------------------------|--------------------------------|
|--------------------------------|--------------------------------|
|5---r---------------------------|------------------------0---3---|



|--------------------------------|--------------------------------|
|--------------------------------|--------------------------------|
|--------------------------------|--------------------------------|
|5---5---5---5---5---5---5---5---|5---5---5---5---5---5---5---5---|



|--------------------------------|--------------------------------|
|--------------------------------|--------------------------------|
|--------------------------------|--------------------------------|
|3---3---3---3---3---3---3---3---|3---3---3---3---3---3---3---3---|



|--------------------------------|--------------------------------|
|--------------------------------|--------------------------------|
|--------------------------------|--------------------------------|
|0---0---0---0---0---0---0---0---|0---0---0---3-------3---3---3---|



|--------------------------------|--------------------------------|
|--------------------------------|--------------------------------|
|--------------------------------|--------------------------------|
|5---5---5---5---5---5---5---5---|5---5---5---5---5---5---5---5---|


PRE-CHORUS

|--------------------------------|--------------------------------|
|--------------------------------|--------------------------------|
|--------------------------------|--------------------------------|
|0---0---0---0---0---0---0---0---|3---3---3---3---3---3---3---3---|



|--------------------------------|--------------------------------|
|--------------------------------|--------------------------------|
|--------------------------------|----------------------------7---|
|5---5---5---5---5---5---5---5---|5---5---5---5---5---5---5-------|



|--------------------------------|---------------------------------|
|--------------------------------|---------------------------------|
|5---5---5---5---5---5---5---5---|5---5---5---5---5---5---5/-(7)---|
|--------------------------------|---------------------------------|



|----------------------------------|---------------------------------------|
|----------------------------------|---------------------------------------|
|3---3---3---3---3---5---7/--(12)--|10---10---10---10/--14---15---14\------|
|----------------------------------|---------------------------------------|


CHORUS 

|--------------------------------|--------------------------------|
|--------------------------------|--------------------------------|
|--------------------------------|--------------------------------|
|5---5---5---5---5---5---5---5---|5---5---5---5---5---5---5---5---|



|--------------------------------|--------------------------------|
|--------------------------------|--------------------------------|
|--------------------------------|--------------------------------|
|3---3---3---3---3---3---3---3---|3---3---3---3---3---3---3---3---|



|--------------------------------|--------------------------------|
|--------------------------------|--------------------------------|
|3---3---3---3---3---3---3---3---|--------------------------------|
|--------------------------------|0-------0---0---3-------3---3---|



|--------------------------------|--------------------------------|
|--------------------------------|--------------------------------|
|--------------------------------|--------------------------------|
|5---5---5---5---5---5---5---5---|5---5---5---5---5---5---5---5---|


1.________________________________________________________________
|--------------------------------|--------------------------------|
|--------------------------------|--------------------------------|
|--------------------------------|--------------------------------|
|3---3---3---3---3---3---3---3---|0---r---0---r-------------------|


__________________________________________________________________
|--------------------------------|--------------------------------|
|--------------------------------|--------------------------------|
|--------------------------------|--------------------------------|
|r-------------------------------|r-----------------------0---3---|


2.________________________________________________________________
|--------------------------------|--------------------------------|
|--------------------------------|--------------------------------|
|--------------------------------|--------------------------------|
|3---3---3---3---3---3---3---3---|0---r---------------------------|


__________________________________________________________________
|--------------------------------|--------------------------------|
|--------------------------------|--------------------------------|
|--------------------------------|--------------------------------|
|r-------------------------------|r-------------------------------|



VERSE 2

|--------------------------------|--------------------------------|
|--------------------------------|--------------------------------|
|--------------------------------|--------------------------------|
|5---5---5---5---5---5---5---5---|5---5---5---5---5---5---5---5---|



|--------------------------------|--------------------------------|
|--------------------------------|--------------------------------|
|--------------------------------|--------------------------------|
|3---3---3---3---3---3---3---3---|3---3---3---3---3---3---3---3---|



|--------------------------------|--------------------------------|
|--------------------------------|--------------------------------|
|--------------------------------|--------------------------------|
|0---0---0---0---0---0---0---0---|1---1---1---1---3---3---3---3---|



|--------------------------------|--------------------------------|
|--------------------------------|--------------------------------|
|--------------------------------|--------------------------------|
|5---5---5---5---5---5---5---5---|5---5---5---5---5---5---5---5---|



|--------------------------------|--------------------------------|
|--------------------------------|--------------------------------|
|--------------------------------|--------------------------------|
|5---5---5---5---5---5---5---5---|5---5---5---5---5---5---5---5---|



|--------------------------------|--------------------------------|
|--------------------------------|--------------------------------|
|--------------------------------|--------------------------------|
|3---3---3---3---3---3---3---3---|3---3---3---3---3---3---3---3---|



|--------------------------------|--------------------------------|
|--------------------------------|--------------------------------|
|--------------------------------|--------------------------------|
|0---0---0---0---0---0---0---0---|0---0---0---3-------3---3---3---|



|--------------------------------|--------------------------------|
|--------------------------------|--------------------------------|
|--------------------------------|--------------------------------|
|5---5---5---5---5---5---5---5---|5---5---5---5---5---5---5---5---|



PRE-CHORUS

|--------------------------------|--------------------------------|
|--------------------------------|--------------------------------|
|--------------------------------|--------------------------------|
|0---0---0---0---0---0---0---0---|3---3---3---3---3---3---3---3---|



|--------------------------------|--------------------------------|
|--------------------------------|--------------------------------|
|--------------------------------|----------------------------7---|
|5---5---5---5---5---5---5---5---|5---5---5---5---5---5---5-------|



|--------------------------------|---------------------------------|
|--------------------------------|---------------------------------|
|5---5---5---5---5---5---5---5---|5---5---5---5---5---5---5/-(7)---|
|--------------------------------|---------------------------------|



|----------------------------------|---------------------------------------|
|----------------------------------|---------------------------------------|
|3---3---3---3---3---5---7/--(12)--|10---10---10---10/--14---15---14\------|
|----------------------------------|---------------------------------------|



CHORUS 

|--------------------------------|--------------------------------|
|--------------------------------|--------------------------------|
|--------------------------------|--------------------------------|
|5---5---5---5---5---5---5---5---|5---5---5---5---5---5---5---5---|



|--------------------------------|--------------------------------|
|--------------------------------|--------------------------------|
|--------------------------------|--------------------------------|
|3---3---3---3---3---3---3---3---|3---3---3---3---3---3---3---3---|



|--------------------------------|--------------------------------|
|--------------------------------|--------------------------------|
|3---3---3---3---3---3---3---3---|--------------------------------|
|--------------------------------|0-------0---0---3-------3---3---|



|--------------------------------|--------------------------------|
|--------------------------------|--------------------------------|
|--------------------------------|--------------------------------|
|5---5---5---5---5---5---5---5---|5---5---5---5---5---5---5---5---|


1.________________________________________________________________
|--------------------------------|--------------------------------|
|--------------------------------|--------------------------------|
|--------------------------------|--------------------------------|
|3---3---3---3---3---3---3---3---|0---r---0---r-------------------|


__________________________________________________________________
|--------------------------------|--------------------------------|
|--------------------------------|--------------------------------|
|--------------------------------|--------------------------------|
|r-------------------------------|r-----------------------0---3---|


2.________________________________________________________________
|--------------------------------|--------------------------------|
|--------------------------------|--------------------------------|
|--------------------------------|--------------------------------|
|3---3---3---3---3---3---3---3---|0---r---------------------------|


__________________________________________________________________
|--------------------------------|--------------------------------|
|--------------------------------|--------------------------------|
|--------------------------------|--------------------------------|
|r-------------------------------|r-------------------------------|



GUITAR SOLO

|--------------------------------|--------------------------------|
|r-------------------------------|7---r-------7---r-------7---r---|
|--------------------------------|--------------------------------|
|--------------------------------|--------------------------------|



|--------------------------------|--------------------------------|
|----7---r-------7---r-----------|--------------------------------|
|--------------------------------|--------------------------------|
|------------------------1/------|5---5---5---5---5---5---5---5---|



|--------------------------------|--------------------------------|
|--------------------------------|--------------------------------|
|--------------------------------|3---3---3---3---3---3---3---3---|
|5---5---5---5---5---5---5---5---|--------------------------------|



|--------------------------------|--------------------------------|
|--------------------------------|--------------------------------|
|5---5---5---5---5---5---5---5---|--------------------------------|
|--------------------------------|5---5---5---5---5---5---5---5---|



|--------------------------------|--------------------------------|
|--------------------------------|--------------------------------|
|3---3---3---3---3---3---3---3---|--------------------------------|
|--------------------------------|3-------3---3---3---3---3---3---|



|--------------------------------|--------------------------------|
|--------------------------------|--------------------------------|
|--------------------------------|--------------------------------|
|5---5---5---5---3/-(5)--5---5---|3/-(5)--5---5---5---5---5---5---|



|--------------------------------|--------------------------------|
|--------------------------------|--------------------------------|
|3---3---3---3---3---3---3---3---|5---5---5---5---5---5---5---5---|
|--------------------------------|--------------------------------|



|--------------------------------|--------------------------------|
|--------------------------------|--------------------------------|
|--------------------------------|--------------------------------|
|5---5---5---5---5---5---5---5---|3/-(5)--5---5---5---5---5---5---|



|--------------------------------|--------------------------------|
|--------------------------------|--------------------------------|
|3---3---3---3---3---3---3---3---|--------------------------------|
|--------------------------------|3-------3---3---3---3---3---3---|


PRE-CHORUS

|--------------------------------|--------------------------------|
|--------------------------------|--------------------------------|
|--------------------------------|--------------------------------|
|0---0---0---0---0---0---0---0---|3---3---3---3---3---3---3---3---|



|--------------------------------|--------------------------------|
|--------------------------------|--------------------------------|
|--------------------------------|----------------------------7---|
|5---5---5---5---5---5---5---5---|5---5---5---5---5---5---5-------|



|--------------------------------|---------------------------------|
|--------------------------------|---------------------------------|
|5---5---5---5---5---5---5---5---|5---5---5---5---5---5---5/-(7)---|
|--------------------------------|---------------------------------|



|----------------------------------|---------------------------------------|
|----------------------------------|---------------------------------------|
|3---3---3---3---3---5---7/--(12)--|10---10---10---10/--14---15---14\------|
|----------------------------------|---------------------------------------|


[CHORUS (w/variation)]  To fade

|--------------------------------|--------------------------------|
|--------------------------------|--------------------------------|
|--------------------------------|--------------------------------|
|5---5---5---5---5---5---5---5---|5---5---5---5---5---5---5---5---|



|--------------------------------|--------------------------------|
|--------------------------------|--------------------------------|
|--------------------------------|--------------------------------|
|3---3---3---3---3---3---3---3---|3---3---3---3---3---3---3---3---|



|--------------------------------|--------------------------------|
|--------------------------------|--------------------------------|
|3---3---3---3---3---3---3---3---|--------------------------------|
|--------------------------------|0-------0---0---3-------3---3---|



|--------------------------------|--------------------------------|
|--------------------------------|--------------------------------|
|--------------------------------|--------------------------------|
|5---5---5---5---5---5---5---5---|5---5---5---5---5---5---5---5---|


1.________________________________________________________________
|--------------------------------|--------------------------------|
|--------------------------------|--------------------------------|
|--------------------------------|--------------------------------|
|3---3---3---3---3---3---3---3---|0---r---0---r-------------------|


__________________________________________________________________
|--------------------------------|--------------------------------|
|--------------------------------|--------------------------------|
|--------------------------------|--------------------------------|
|r-------------------------------|r-----------------------0---3---|


2.________________________________________________________________
|--------------------------------|--------------------------------|
|--------------------------------|--------------------------------|
|--------------------------------|--------------------------------|
|3---3---3---3---3---3---3---3---|0---r---------------------------|


__________________________________________________________________
|--------------------------------|--------------------------------|
|--------------------------------|--------------------------------|
|--------------------------------|--------------------------------|
|r-------------------------------|r-------------------------------|




                 (PLEASE RATE THIS TAB / LEAVE COMMENT)
Suggest correction
Creating personal tab
Creating personal tab
You can edit any tab online and save it as your Personal.

You can edit, replace or remove any tab part or add personal notes – all changes will be seen only by you.

Personal tabs can be accessed anytime from any device, even offline.
Learn more »
Give kudos to tab author, rate the tab!
1 2 3 4 5
comments
print report bad tab
guest
You may want to rate the tab now too:
select rating
Wanna post a correction for this tab? Suggest correction