Oops, an error
Loading. Please wait.

Someday Ill Be Saturday Night Tab

version 1
version 1

Whole song

Interactive

26,361 views 57 this week
2 commentsread comments
1 2 3 4 5
accurate
x 7
add to favorites
launch autoscroll
font size
0
reset
how to read this tab
guitar tuner
Autoscroll
slow
fast
+/-
esc
set tempo
stop
Help us to improve Ultimate-Guitar.com Take our survey!
×
Author
Tuesday 22nd of february UPDATE: all the chords i did this so many years ago and
they were so wrong! now they are 100% correct! sorry.

Artist: Bon Jovi
Album: The best of bon jovi´s crossroad
Song: Someday I´ll be saturday night (track 3)
Type: This version is for an acoustic version with one 6 string guitar

Normal tunning: E - A - D - G - B - e

Intro:

This is the little intro before the chords

/= Slide
h= Hammer on
v= Vibrato

e----------------------------------------------------------------------------|
B------0h2p0-----------------------------------------------------------------|
G----------------1-----------------------------------------------------------|
D--2/4--------4-----4--2-----------------------------------------------------|
A----------------------------------------------------------------------------|
E------------------------0---------------------------------------------------|

E                  A
Hey men, I´m alive, I´am taking each day and night at a time

(just 1)B5
I´m feeling like a monday

no chord           A
but someday I´ll be saturday night

Here is the little riff

Riff 1:
e----------------------------------------------------------------------------|
B----------------------------------------------------------------------------|
G----------------------------------------------------------------------------|
D----------------------------------------------------------------------------|
A--7-----6-----4-----2-----0------2------------------------------------------|
E----0-0---0-0---0-0---0-0----2-4--------------------------------------------|

Verse 1:

E                  E
Hey my name is jim, where did i go wrong?

G#m                          G#m
My life is a bargant basement, all the good shits gone

A                    A
I just hold on a job, where do i belong?

B
you are sleeping in my car

Bsus4     B
my dreams move on

---Riff  1---

E                     E
My name is billy jean, my love has been bought and sold

G#m             G#m
I´m only sixteen,  I feel a hundred years old

A                    A
My foster daddy went, and took my inocence away

B                                   Bsus4             B
the streets life ain´t much better, but at least I get paid

Pre-chorus:

C#m                 A
oh, tuesday It just call my name

E                 Esus4        E
It can´t get worse than yesterday

G#m
thursday, friday ain´t been kind

A                   F#m
but somehow I survive

Strum a few times F#m
Chorus:

E
hey men, I´am alive

A
I´am taking each day and night at a time

E                                 B Bsus2 B Bsus4(SEE BELOW)
Yeah I´m down, but i know I´ll get by

somthing like this

I´ll get by
e--2-2-2-2-2-2-2-2-2-2-|
B--4-4-2-4-5-5-5-4-4-4-|
G--4-4-4-4-4-4-4-4-4-4-|
D--4-4-4-4-4-4-4-4-4-4-|
A--2-2-2-2-2-2-2-2-2-2-|
E----------------------|



A
Hey men

B
Gotta live my life

E                            C#m
like I ain´t got nothing but this role of a dice

B
I´m feeling like a monday

A                                E
but someday I´ll be saturday night

---Riff 1--- (Over E E A A)
now the riff 1 again with a little touch
E                        E      A             A
e----------------------------------------------------------------------------|
B----------------------------------------------------------------------------|
G----------------------------------------------------------------------------|
D----------------------------------------2v----------------------------------|
A--7-----6-----4-----2-----0-------0h2---------------------------------------|
E----0-0---0-0---0-0---0-0-----4---------------------------------------------|


E
now, I can´t tell my name or tell you where I am

G#m
I wanna blow myself away, don´t know if I can

A
I wish that I could be in some other time and place

B
With someone else´s soul,

Bsus4        B
someone else´s face

---Pre Chorus---

---Chorus---

---Solo Chords---

E         A        E        A


Bridge: (over this repeat all over)

e--5h4-0-0-5h4-0-0-5h4-0-0-|
B--------------------------|
G--------------------------|
D--------------------------|
A--------------------------|
E--------------------------|




E              A
saturday night, here we go

E
Someday I´ll be saturday night

A
I´ll be back on my feets I´ll be doing allright

E
It might not be tomorrow, baby that´s ok

A                        B
I´m going down, gonna find the way

--- Chorus ---

B
I´m feeling like a monday

A                                E
but someday I´ll be saturday night

---Switch from E to A and from A to E---

E
ohohohoh Saturday

A
niiiiiiiiiiiiiiight

E
oh yeah,

A
allright

E
Saturday niiiiight

A     E     A     E

Intro Chords:                Verses Chords:

    E A D G B e                   E A D G B e
 E: 0-2-2-1-0-0                E: 0-2-2-1-0-0-|
 A: 0-0-2-2-2-0              G#m: 4-6-6-4-4-4-|
 B: 0-2-4-4-4-2                A: 0-0-2-2-2-0-|
                            Bsus4:0-2-4-4-5-2-|
                            Bsus2:0-2-4-4-2-2-|

Pre Chorus chords:              Chorus Chords:

     E A D G B e                E A D G B e
C#m: --4-6-6-5-4             E: 0-2-2-1-0-0---|
  A: 0-0-2-2-2-0             A: 0-0-2-2-2-0---|
  E: 0-2-2-1-0-0             B: 0-2-4-4-4-2---|
G#m: 4-6-6-4-4-4           C#m: --4-6-6-5-4---|
  B: 0-2-4-4-4-2------------------------------|

Solo and bridge chords:
    E A D G B e
 E: 0-2-2-1-0-0-|
 A: 0-0-2-2-2-0-|

Well, i think you got enough to entertain yourself
congtats, comments are welcome at maulhardtc@hotmail.com

Tintin
THE END
Suggest correction
What's this?
You can suggest a correction to this tab. Community and Mods will review your correction and vote to approve or reject it.
comments
print report bad tab
2 comments total.
0 reply
AH@2112 408 wrote on April 19 2006, 05:03 pm

Not accurate especially the chords and riffs

0 reply
minidoresy 21 wrote on August 20 2007, 05:11 pm

non accurate

guest
You may want to rate the tab now too:
select rating
Please do not post tabs as comments. Select "correction" instead!