Oops, an error
Loading. Please wait.

Superman Tonight Tab

version 1
version 1

Whole song

Interactive

2,403 views 12 this week
no commentswrite comment
1 2 3 4 5
2 more votes to show rating
add to favorites
launch autoscroll
font size
0
reset
how to read this tab
guitar tuner
Autoscroll
slow
fast
+/-
esc
set tempo
stop
Help us to improve Ultimate-Guitar.com Take our survey!
×
Author
Bon Jovi
Superman Tonight Tab

                                                         G      C      Em
E--------------------------------------------------------------------------|
A--------------------------------------------------------------------------|
D--------------------------------------------------------------------------|
G----------------9x8-------------9x8------------9x8------------------------|
B-------8x16-------------8x8------------8x8--------------------------------|
E--------------------------------------------------------------------------|

      C       D       Am       D       C           G       A            Em
E--------------------------------------------------------------3-----------|
A--------------------------------------------------------------3-----------|
D--------------------------------------------------------------3-5---------|
G--------------------------------------------------------------3-5---------|
B--------------------------------------------------------------3-----------|
E--------------------------------------------------------------3-----------|

                                             Am
E----5-------3-------3-------2-------3----------------3--------------------|
A----5-------3-------3-5-----2-------3----------------3--------------------|
D----5-7-----3-5-----3-5-----2-4-----3-5--------------3-5------------------|
G----5-7-----3-5-----3-4-----2-4-----3-5--------------3-5------------------|
B----5-------3-------3-------2-------3----------------3--------------------|
E----5-------3-------3-------2-------3----------------3--------------------|


                       G       C       Em       C       G
E--------------------------------------------------------------------------|
A--------------------------------------------------------------------------|
D--------------------------------------------------------------------------|
G-------------9X8----------------------------------------------------------|
B-----8x8------------------------------------------------------------------|
E--------------------------------------------------------------------------|


       C       Em       D             G       A            Em
E----------------------------------------------------3-------------5-------|
A----------------------------------------------------3-------------5-------|
D----------------------------------------------------3-5-----------5-7-----|
G----------------------------------------------------3-5-----------5-7-----|
B----------------------------------------------------3-------------5-------|
E----------------------------------------------------3-------------5-------|

                                             Am
E------------3-------3-------2-------3----------------3--------------------|
A------------3-------3-5-----2-------3----------------3--------------------|
D------------3-5-----3-5-----2-4-----3-5--------------3-5------------------|
G------------3-5-----3-4-----2-4-----3-5--------------3-5------------------|
B------------3-------3-------2-------3----------------3--------------------|
E------------3-------3-------2-------3----------------3--------------------|


SOLO----NOT INCLUDED----

        G      Am              Em               Am
E----------------------3----------------3----------------3--------5--------|
A----------------------3----------------3----------------3--------5--------|
D----------------------3-5--------------3-5--------------3-5------5-7------|
G----------------------3-5--------------3-5--------------3-5------5-7------|
B----------------------3----------------3----------------3--------5--------|
E----------------------3----------------3----------------3--------5--------|

                                          Em
E-------3-------------5---------3------------------5-----------------------|
A-------3-------------5---------3------------------5-----------------------|
D-------3-5-----------5-7-------3-5----------------5-7---------------------|
G-------3-5-----------5-7-------3-5----------------5-7---------------------|
B-------3-------------5---------3------------------5-----------------------|
E-------3-------------5---------3------------------5-----------------------|


                                             Am
E------------3-------3-------2-------3----------------2---------3----------|
A------------3-------3-5-----2-------3----------------2---------3----------|
D------------3-5-----3-5-----2-4-----3-5--------------2-4-------3-5--------|
G------------3-5-----3-4-----2-4-----3-5--------------2-4-------3-5--------|
B------------3-------3-------2-------3----------------2---------3----------|
E------------3-------3-------2-------3----------------2---------3----------|

                                          Em
E-------3-------------5---------3------------------5-----------------------|
A-------3-------------5---------3------------------5-----------------------|
D-------3-5-----------5-7-------3-5----------------5-7---------------------|
G-------3-5-----------5-7-------3-5----------------5-7---------------------|
B-------3-------------5---------3------------------5-----------------------|
E-------3-------------5---------3------------------5-----------------------|


                                            Am
E------------3-------3-------2-------3---------------3---------------------|
A------------3-------3-5-----2-------3---------------3---------------------|
D------------3-5-----3-5-----2-4-----3-5-------------3-5-------------------|
G------------3-5-----3-4-----2-4-----3-5-------------3-5-------------------|
B------------3-------3-------2-------3---------------3---------------------|
E------------3-------3-------2-------3---------------3---------------------|


    G   D   C         G   D  C       G   D  C         G   D  C
E-------------------------------------------------------------------------|
A-------------------------------------------------------------------------|
D-------------------------------------------------------------------------|
G-------------------------------------------------------------------------|
B-------------------------------------------------------------------------|
E-------------------------------------------------------------------------|


i will be bringing out the solo shortly...
Thank you for viewing my tabs
Suggest correction
Give kudos to tab author, rate the tab!
1 2 3 4 5
comments
print report bad tab
guest
You may want to rate the tab now too:
select rating
Wanna post a correction for this tab? Suggest correction