Oops, an error
Loading. Please wait.

Thank You For Loving Me Tab

version 4
version 4

Whole song

Interactive

11,464 views 9 this week
no commentswrite comment
1 2 3 4 5
please rate
add to favorites
launch autoscroll
font size
0
reset
how to read this tab
guitar tuner
Autoscroll
slow
fast
+/-
esc
set tempo
stop
Help us to improve Ultimate-Guitar.com Take our survey!
×
intro

|----0-2-0-----0-|---0-2-0-----0-2-0-|---0-2-0---7-5-2-0-2-0-|
|-3--------3-0---|-3-------3-0-------|-3-------3-------------|
|----------------|-------------------|-----------------------|
|----------------|-------------------|-----------------------|
|----------------|-------------------|-----------------------|
|----------------|-------------------|-----------------------|

|---0-2-0-----0-2-0-|
|-3-------3-0-------|
|-------------------|
|-------------------|
|-------------------|
|-------------------|

VERSE 1:
G
It's hard for me to say the things 
D
I want to say sometimes 
G
There's no one here but you and me 
D
And that broken old street light 
Bm
Lock the doors 
G                        A-riff 1 (found it at the back)
We'll leave the world outside 
Bm               G
All I've got to give to you 
A
Are these five words tonight  

1st Chorus:
D                    G
Thank you for loving me 
A                 A-riff 1
For being my eyes 
D
When I couldn't see 
Bm/Bb
For parting my lips 
                        E
When I couldn't breathe 
D                    G   A-Riff 1
Thank you for loving me 
D                    G   A
Thank you for loving me  

VERSE 2: (same as Verse 1)
I never knew I had a dream 
Until that dream was you 
When I look into your eyes 
The sky's a different blue 
Cross my heart 
I wear no disguise 
If I tried, you'd make believe                                
That you believed my lies  

ESTRIBILLO

BRIDGE:
G
You pick me up when I fall down 
A
You ring the bell before they count me out 
E                           Bm
If I was drowning you would part the sea 
G                          D     A
And risk your own life to rescue me  

Solo

|-------------------------------------------------------------------------|
|-7-5-7-5-7---------------------------------------------------------------|
|-----------7-9-7-------6-7-9--12-11-9-11---------------------------------|
|-----------------9-9-7---------------------------------------------------|
|-------------------------------------------------------------------------|
|-------------------------------------------------------------------------|


VERSE 3:
D
Lock the doors 
G                             A-Riff 1
We'll leave the world outside 
D                       G
All I've got to give to you 
A                      D
Are these five words tonight  

D                    G
Thank you for loving me 
A                 A-RUN-UP RIFF
For being my eyes 
D
When I couldn't see 
Bm/Bb
For parting my lips 
                        E
When I couldn't breathe 
D                    G
Thank you for loving me 
                    A- riff 1
When I couldn't fly 
D
Oh, you gave me wings 
Bm/Bb
You parted my lips 
                        E
When I couldn't breathe 
D                    G  A-riff 1
Thank you for loving me
D                    G  A-riff 1
Thank you for loving me
D                    G  A-Rriff 1
Thank you for loving me
Oh For loving me

intro



Riff 1

|-------------------------------------------------------------------------|
|-2-3-5-------------------------------------------------------------------|
|-------------------------------------------------------------------------|
|-------------------------------------------------------------------------|
|-------------------------------------------------------------------------|
|-------------------------------------------------------------------------|


If you want to make any commment please e-mail me to ele_gary2002@yahoo.com.ar
Keep rockin'
Suggest correction
What's this?
You can suggest a correction to this tab. Community and Mods will review your correction and vote to approve or reject it.
comments
We did not receive enough feedback on this tab! Please rate:
print report bad tab
1 2 3 4 5
guest
You may want to rate the tab now too:
select rating
Please do not post tabs as comments. Select "correction" instead!