Oops, an error
Loading. Please wait.

The Distance Tab

version 2
version 2

Whole song

Interactive

1,119 views 1 this week
no commentswrite comment
1 2 3 4 5
1 last vote to show rating
add to favorites
launch autoscroll
font size
0
reset
how to read this tab
guitar tuner
Autoscroll
slow
fast
+/-
esc
set tempo
stop
Help us to improve Ultimate-Guitar.com Take our survey!
×
Author
Song: The Distance
Artist: Bon Jovi
Transcribed by: JimBonJovi
Tuning: Drop-D

Thanks to Santiago-Sambo(Santiago Rodriguez) for adding his parts.



Intro:

 Natural Harmonics:
E|-------------------------------------------|
B|-------------------------------------------|
G|----(5)-----(5)-----(5)-----(5)----(5)-----|
D|------(5)-----(5)-----(5)-----(5)----(5)---|
A|---------(5)----(5)-----(5)-----(5)----(5)-|
D|-------------------------------------------|x2

Single notes:
E|--9--10--9--10--9-10-9--10--12--10--9--10--9-------------------|
B|---------------------------------------------------------------|
G|---------------------------------------------------------------|
D|---------------------------------------------------------------|
A|---------------------------------------------------------------|
D|---------------------------------------------------------------|x2

Bombastic chords:
E|---2-----------------------------------------------------------|
B|---3-----------------------------------------------------------|
G|---2-----------------------------------------------------------|
D|---0____--5____----11-11-11-11-11-11-11---------7---*5-4-3*----|
A|---0____--5____----9--9--9--9--9--9--9----------5---*5-4-3*----|
D|---0____--5____----9--9--9--9--9--9--9----------5---*5-4-3*----|x2 

end intro on D5

Verse I:

Guitar 1:
There's a train out in......a Rose outside....     
     D5
   E|--------------|
   B|--------------|
   G|--------------| 
   D|--5~~~~~7~~~~~|
   A|--5~~~~~5~~~~~|
   D|--5~~~~~5~~~~~|


Guitar 2: Acoustic Chords

| D - G - D - G - Bm - G - G - G | 
| D - G - D - G - Bm - G|

-----------
Pre-Chorus:

Guitar 1: power chords
   G5                               A5
E|-----------------------------------------------------------------|
B|-----------------------------------------------------------------|
G|-----------------------------------------------------------------|
D|--5--5-5--5--5-5--5--5-5--5--5-5--7--7-7--7--7-7--7--7-7--7--7-7-|
A|--5--5-5--5--5-5--5--5-5--5--5-5--7--7-7--7--7-7--7--7-7--7--7-7-|
D|--5--5-5--5--5-5--5--5-5--5--5-5--7--7-7--7--7-7--7--7-7--7--7-7-|
       . .     . .     . .     . .     . .     . .     . .     . .

Guitar 2: acoustic chords

| G - A |

Chorus:

E|-2~-----------------------2--------------------------|
B|-3~-----------------------3--------------------------|
G|-2~-----------------------2--------------------------|
D|-0~------5--5-5--5--5-5---0-------5--5-5--5--5-5-----|
A|-0~------5--5-5--5--5-5---0-------5--5-5--5--5-5-----|
D|-0~------5--5-5--5--5-5---0-------5--5-5--5--5-5-----|

E|-2----------------------------------------------|
B|-3----------------------------------------------|
G|-2----------------------------------------------|
D|-0-------5--5-5--5--5-5---7--7-7--11-11-11----5-|
A|-0-------5--5-5--5--5-5---5--5-5--9--9--9-----5-|
D|-0-------5--5-5--5--5-5---5--5-5--9--9--9-----5-|

Chorus end
E|----------------------------------|
 B|----------------------------------|
 G|----------------------------------|
 D|----------------------------------|
 A|--5--4--2--5--5-4-2--0--3___------|
 D|--5--4--2--5--5-4-2--0--3___------|
i'll never.......

Intro power chords: this just once
-------------------
---------------------
Verse 2: like verse 1
----------------------
------------------------------
Pre-chorus: Follow the first one
------------------------------
----------------------------
Chorus : like the first Chorus
----------------------------
--------------
Chorus-end

E|----------------------------------|
B|----------------------------------|
G|----------------------------------|
D|----------------------------------|
A|--5--4--2--5--5-4-2--0--3___-2__--|
D|--5--4--2--5--5-4-2--0--3___-2__--|
i'll never give up the fight....

Solo:
E|-------------------------------------------------2-------|
B|-------------------------------------------------3-------|
G|-------------------------5-5--5--5-5--5----------2-------|
D|-0--0-0--3--3-3--5--5-5--5-5--5--5-5--5--5--2-2--0-------|
A|-0--0-0--3--3-3--5--5-5--3-3--3--3-3--3--5--2-2--0-------|
D|-0--0-0--3--3-3--5--5-5------------------5--2-2--0-------|x6

Natural Harmonics:
E|-------------------------------------------|
B|-------------------------------------------|
G|----(5)-----(5)-----(5)-----(5)----(5)-----|
D|------(5)-----(5)-----(5)-----(5)----(5)---|
A|---------(5)----(5)-----(5)-----(5)----(5)-|
D|-------------------------------------------|x1


---------------------------
Chorus x2: like the others one
----------------------------

Fade out with the "solo" chords.
Suggest correction
Give kudos to tab author, rate the tab!
1 2 3 4 5
comments
print report bad tab
guest
You may want to rate the tab now too:
select rating
Wanna post a correction for this tab? Suggest correction