Oops, an error
Loading. Please wait.

The Last Night Tab

1,106 views 1 this week
no commentswrite comment
1 2 3 4 5
please rate
add to favorites
launch autoscroll
font size
0
reset
how to read this tab
guitar tuner
Autoscroll
slow
fast
+/-
esc
set tempo
stop
Help us to improve Ultimate-Guitar.com Take our survey!
×
Author
Intro    2X
E-----------------------|
B-----------------------|
G-----------------------|
D-----------------------|
A---7/9-7-5-------------|
E-----------7-5---------|


Verse1

E-----------------------|
B-----------------------|
G---77777777------------|
D---77777777------------|
A---55555555------------|
E-----------------------|
these days its

E-----------------------|
B-----------------------|
G---77777777------------|
D---77777777------------|
A---44444444------------|
E-----------------------|
hard to have a heart

E-----------------------|
B-----------------------|
G-----------------------|
D---55555555------------|
A---55555555------------|
E---33333333------------|
it dsnt matter where you come from
or who you think you are

E-----------------------|
B-----------------------|
G---77777777------------|
D---77777777------------|
A---55555555------------|
E-----------------------|
these days its

E-----------------------|
B-----------------------|
G---77777777------------|
D---77777777------------|
A---44444444------------|
E-----------------------|
hard to just fit it in

E-----------------------|
B-----------------------|
G-----------------------|
D---55555555------------|
A---55555555------------|
E---33333333------------|
why does someone have to lose
for someone else to win

Pre Corus

E-----------------------|
B-----------------------|
G---44444444------------|
D---44444444------------|
A---22222222------------|
E-----------------------|
we're all lookin' for forgiveness

E-----------------------|
B-----------------------|
G-----------------------|
D---55555555------------|
A---55555555------------|
E---33333333------------|
and someone we can trust

E-----------------------|
B-----------------------|
G---55555555------------|
D---55555555------------|
A---33333333------------|
E-----------------------|
you cant wrap your arms around the world

E-----------------------|
B-----------------------|
G-----------------------|
D---77777777------------|
A---77777777------------|
E---55555555------------|
it all comes down to us

Chorus

E-----------------------|
B-----------------------|
G---77777777------------|
D---77777777------------|
A---55555555------------|
E-----------------------|
this is the last night

E-----------------------|
B-----------------------|
G-----------------------|
D---22222222------------|
A---22222222------------|
E---00000000------------|
you have to be alone

E-----------------------|
B-----------------------|
G-----------------------|
D---55555555------------|
A---55555555------------|
E---33333333------------|
i'll be standing right beside you

E-----------------------|
B-----------------------|
G-----------------------|
D---77777777------------|
A---77777777------------|
E---55555555------------|
if you cant make it on your own

E-----------------------|
B-----------------------|
G---77777777------------|
D---77777777------------|
A---55555555------------|
E-----------------------|
so walk with me please

E-----------------------|
B-----------------------|
G-----------------------|
D---22222222------------|
A---22222222------------|
E---00000000------------|
help me to be strong

E-----------------------|
B-----------------------|
G-----------------------|
D---55555555------------|
A---55555555------------|
E---33333333------------|
i'll be the shoulder you can lean on

E-----------------------|
B-----------------------|
G-----------------------|
D---77777777------------|
A---77777777------------|
E---55555555------------|
when everybody's gone

E-----------------------|
B-----------------------|
G-----------------------|
D---55555555------------|
A---55555555------------|
E---33333333------------|
this is the last night

E-----------------------|
B-----------------------|
G-----------------------|
D---77777777------------|
A---77777777------------|
E---55555555------------|
you'll have to be alone


E-----------------------|
B-----------------------|
G-----------------------|    2x
D-----------------------|
A---7/9-7-5-------------|
E-----------7-5---------|


Verse2

E-----------------------|
B-----------------------|
G---77777777------------|
D---77777777------------|
A---55555555------------|
E-----------------------|
i know you

E-----------------------|
B-----------------------|
G---77777777------------|
D---77777777------------|
A---44444444------------|
E-----------------------|
heard it all before

E-----------------------|
B-----------------------|
G-----------------------|
D---55555555------------|
A---55555555------------|
E---33333333------------|
there's nothing worst than living less
when you yearn for something more

E-----------------------|
B-----------------------|
G---77777777------------|
D---77777777------------|
A---55555555------------|
E-----------------------|
makes no sense its

E-----------------------|
B-----------------------|
G---77777777------------|
D---77777777------------|
A---44444444------------|
E-----------------------|
hard to understand

E-----------------------|
B-----------------------|
G-----------------------|
D---55555555------------|
A---55555555------------|
E---33333333------------|
when there's something that should fill you up

E-----------------------|
B-----------------------|
G-----------------------|
D---77777777------------|
A---77777777------------|
E---55555555------------|
keep slippin' through your hand

Chorus

E-----------------------|
B-----------------------|
G---77777777------------|
D---77777777------------|
A---55555555------------|
E-----------------------|
this is the last night

E-----------------------|
B-----------------------|
G-----------------------|
D---22222222------------|
A---22222222------------|
E---00000000------------|
you have to be alone

E-----------------------|
B-----------------------|
G-----------------------|
D---55555555------------|
A---55555555------------|
E---33333333------------|
i'll be standing right beside you

E-----------------------|
B-----------------------|
G-----------------------|
D---77777777------------|
A---77777777------------|
E---55555555------------|
if you cant make it on your own

E-----------------------|
B-----------------------|
G---77777777------------|
D---77777777------------|
A---55555555------------|
E-----------------------|
so walk with me please

E-----------------------|
B-----------------------|
G-----------------------|
D---22222222------------|
A---22222222------------|
E---00000000------------|
help me to be stong

E-----------------------|
B-----------------------|
G-----------------------|
D---55555555------------|
A---55555555------------|
E---33333333------------|
i'll be the shoulder you can lean on

E-----------------------|
B-----------------------|
G-----------------------|
D---77777777------------|
A---77777777------------|
E---55555555------------|
when everybody's gone

E-----------------------|
B-----------------------|
G-----------------------|
D---55555555------------|
A---55555555------------|
E---33333333------------|
this is the last night

E-----------------------|
B-----------------------|
G--------------44444444-|
D---77777777---44444444-|
A---77777777---22222222-|
E---55555555------------|
you'll have to be alone

Bridge
E-----------------------|
B-----------------------|
G-----------------------|
D---55555555------------|
A---55555555------------|
E---33333333------------|
we're all lookin' for answers

E-----------------------|
B-----------------------|
G-----------------------|
D---77777777------------|
A---77777777------------|
E---55555555------------|
we're all down in with our knees

E-----------------------|
B-----------------------|
G---77777777------------|
D---77777777------------|
A---55555555------------|
E-----------------------|
all anybody really wants

E-----------------------|
B-----------------------|
G---44444444------------|
D---44444444------------|
A---22222222------------|
E-----------------------|
is somethimg to believe

E-----------------------|
B-----------------------|
G-----------------------|
D---55555555------------|
A---55555555------------|
E---33333333------------|
and nothin's enough

E-----------------------|
B-----------------------|
G-----------------------|
D---77777777------------|
A---77777777------------|
E---55555555------------|
i cant take it anymore

E-----------------------|
B-----------------------|
G---77777777------------|
D---77777777------------|
A---55555555------------|
E-----------------------|
when im standing on the front court

E-----------------------|
B-----------------------|
G---44444444------------|
D---44444444------------|
A---22222222------------|
E-----------------------|
and kickin down your door

E-----------------------|
B-----------------------|
G-----------------------|
D---55555555-----7------|
A---55555555-----7------|
E---33333333-----5------|
this is the last night

Chorus

E-----------------------|
B-----------------------|
G---77777777------------|
D---77777777------------|
A---55555555------------|
E-----------------------|
this is the last night

E-----------------------|
B-----------------------|
G-----------------------|
D---22222222------------|
A---22222222------------|
E---00000000------------|
you have to be alone

E-----------------------|
B-----------------------|
G-----------------------|
D---55555555------------|
A---55555555------------|
E---33333333------------|
i'll be standing right beside you

E-----------------------|
B-----------------------|
G-----------------------|
D---77777777------------|
A---77777777------------|
E---55555555------------|
if you cant make it on your own

E-----------------------|
B-----------------------|
G---77777777------------|
D---77777777------------|
A---55555555------------|
E-----------------------|
so walk with me please

E-----------------------|
B-----------------------|
G-----------------------|
D---22222222------------|
A---22222222------------|
E---00000000------------|
help me to be strong

E-----------------------|
B-----------------------|
G-----------------------|
D---55555555------------|
A---55555555------------|
E---33333333------------|
i'll be the shoulder you can lean on

E-----------------------|
B-----------------------|
G-----------------------|
D---77777777------------|
A---77777777------------|
E---55555555------------|
that place where you belong

E-----------------------|
B-----------------------|
G-----------------------|
D---55555555------------|
A---55555555------------|
E---33333333------------|
this is the last night

E-----------------------|
B-----------------------|
G-----------------------|
D---77777777------------|
A---77777777------------|
E---55555555------------|
you'll have to be alone


E-------------------------------------------|
B-------------------------------------------|
G---77777777--------------------------------|
D---77777777--22222222--55555555--77777777--|
A---55555555--22222222--55555555--77777777--|
E-------------00000000--33333333--55555555--|
this is the last night

E-------------------------------------------|
B-------------------------------------------|
G---77777777--------------------------------|
D---77777777--22222222--55555555--77777777--|
A---55555555--22222222--55555555--77777777--|
E-------------00000000--33333333--55555555--|
this is the last night

E-------------------------------------------|
B-------------------------------------------|
G---77777777--------------------------------|
D---77777777--22222222--55555555--77777777--|
A---55555555--22222222--55555555--77777777--|
E-------------00000000--33333333--55555555--|
this is the last night

E-----------------------|
B-----------------------|
G----------------7------|
D---77777777-----7------|
A---77777777-----5------|
E---55555555------------|
you have to be alone
Suggest correction new What's this?
You can suggest a correction to this tab. Community and Mods will review your correction and vote to approve or reject it.
comments
We did not receive enough feedback on this tab! Please rate:
print report bad tab
1 2 3 4 5
guest
You may want to rate the tab now too:
select rating
Please do not post tabs as comments. Select "correction" instead!