Oops, an error
Loading. Please wait.

These Days tab

version 1
version 1

Whole song

Interactive

40,819 views 42 this week
3 commentsread comments
1 2 3 4 5
x 16
add to favorites
×
Save as Personal and add changes to this tab that will be seen only by you. Learn more ›
×
You can save this tab as Personal to edit and correct it or add notes. All changes will be seen only by you. Learn more »
launch autoscroll
font size
0
reset
how to read this tab
guitar tuner
edit
Autoscroll
slow
fast
+/-
esc
set tempo
stop
Author
Unregistered
Bon Jovi
These Days
Album-These Days
Written By-Jon Bon Jovi, Richie Sambora (The Best)
Tabber-Santiago Rodriguez - From : Maracay , Venezuela
( Srodemail@yahoo.es )
note : It's one of the best Bon Jovi's Song after "Dry County" and "wanted dead or alive"
Nota : Es una de las mejores canciones de Bon Jovi pero despues de "Dry County" y " W. dead or A"
             (This song has two Guitars a Eletric Guitar and Acoustic Guitar)
             (Esta cancion tiene Dos Guitarras una Electrica y una acustica)

[Intro] (clean sound)
    C       D       Em                 C      D    Em
E|-------------------------------------------------0--|
B|-------------------------------------------------0--|
G|-------------------------------------------------0--|
D|----4/5----------7---5-5--4-4--2-2-----4/5----- -2--|
A|--3-----3-5----5----------------------3-----3-5--2--|
E|-------------7-----------------------------------0--|

[verse/verse] (In the two Guitars/en las dos guitarras)
  Csus2      Dsus2      Esus2
E|--------------------------------7---------------|
B|-----3----------5-----------7-----7-------------|
G|----5--5--5----7-7---7----9--9------9----9-9/7/5|
D|--5------5---7-----7----9-----9----------9-9/7/5|
A|3----------5-----------7-----------------7-7/5/3|
E|------------------------------------------------|

E|-------------------|---------------------------------|
B|---3------5------7-|---3-----3-------5---------------|
G|--5-5----7-7----9-9|--5-5---5-5-----7----------------|
D|-5---5--7---7--9---|-5---5-5---5---7---------------5-|
A|3-----/5-----/7----|3-----3-----3/5------3/4-3-4-3---|
E|-------------------|---------------------------------|

[Behind Chorus:]
  fill:
E|---------|
B|---------|
G|---------|
D|---5p4---|
A|5h7---7p5|
E|---------|

then another variation
"no one.. themselves these days.." "theres nothing to hold on to..."
E|--------------------------------|-----------------------------------|
B|---3-----3------5------8h9---9p8|---3------5------------------------|
G|--5-5---5-5----7-7----9---9-----|--5-5----7-7-----------------------|
D|-5---5-5---5--7---7--9-----9----|-5---5--7---7----------------------|
A|3-----3-----/5-----/7-------7---|3-----/5-----5--0h2-0h2-0-0h2-0h2-0|
E|--------------------------------|-------------------------3---------|

[Chorus/CORO]
STRUM
These days the stars ain't out of reach, But these days... ladder from the streets..
    C         D                 Em        C                D              G
E|3-3-3-3---2-2-2-2-2----------0-0-0-----3-3-3-3-----------2-2-2-2-------3-3-3-3-|
B|3-3-3-3---3-3-3-3-3----------0-0-0-----3-3-3-3-----------3-3-3-3-------3-3-3-3-|
G|5-5-5-5---2-2-2-2-2----------0-0-0-----5-5-5-5-----------2-2-2-2-------4-4-4-4-|
D|5-5-5-5---0-0-0-0-0----------2-2-2-----5-5-5-5-----------0-0-0-0-------5-5-5-5-|
A|3-3-3-3----------------------2-2-2-----3-3-3-3-------------------------5-5-5-5-|
E|-----------------------------0-0-0-------------------------------------3-3-3-3-|

These days are fast, nothing lasts its a graceless age -
There aint nobody left but us these days
  C              D             G                    C
E|3-3-3--------2-2-2-2-------3-3-3-3-3-----------3-3-3|
B|3-3-3--------3-3-3-3-------3-3-3-3-3-----------3-3-3|
G|5-5-5--------2-2-2-2-------4-4-4-4-4-----------5-5-5|
D|5-5-5--------0-0-0-0-------5-5-5-5-5-----------5-5-5|
A|3-3-3----------------------5-5-5-5-5-----------3-3-3|
E|---------------------------3-3-3-3-3----------------|

[Verse]
  Csus2      Dsus2      Esus2
E|--------------------------------7---------------|
B|-----3----------5-----------7-----7-------------|
G|----5--5--5----7-7---7----9--9------9----9-9/7/5|
D|--5------5---7-----7----9-----9----------9-9/7/5|
A|3----------5-----------7-----------------7-7/5/3|
E|------------------------------------------------|

E|-------------------|---------------------------------|
B|---3------5------7-|---3-----3-------5---------------|
G|--5-5----7-7----9-9|--5-5---5-5-----7----------------|
D|-5---5--7---7--9---|-5---5-5---5---7---------------5-|
A|3-----/5-----/7----|3-----3-----3/5------3/4-3-4-3---|
E|-------------------|---------------------------------|

[lead fill] (approx 2:53)
E|----------------|
B|----------------|
G|----------------|
D|----------------|
A|9-9-7-7---------|
E|-------7-7-5h7h8|

[Chorus] / el coro otra vez :
    C         D                 Em        C                D              G
E|3-3-3-3---2-2-2-2-2----------0-0-0-----3-3-3-3-----------2-2-2-2-------3-3-3-3-|
B|3-3-3-3---3-3-3-3-3----------0-0-0-----3-3-3-3-----------3-3-3-3-------3-3-3-3-|
G|5-5-5-5---2-2-2-2-2----------0-0-0-----5-5-5-5-----------2-2-2-2-------4-4-4-4-|
D|5-5-5-5---0-0-0-0-0----------2-2-2-----5-5-5-5-----------0-0-0-0-------5-5-5-5-|
A|3-3-3-3----------------------2-2-2-----3-3-3-3-------------------------5-5-5-5-|
E|-----------------------------0-0-0-------------------------------------3-3-3-3-|

  C              D             G                    C
E|3-3-3--------2-2-2-2-------3-3-3-3-3-----------3-3-3|
B|3-3-3--------3-3-3-3-------3-3-3-3-3-----------3-3-3|
G|5-5-5--------2-2-2-2-------4-4-4-4-4-----------5-5-5|
D|5-5-5--------0-0-0-0-------5-5-5-5-5-----------5-5-5|
A|3-3-3----------------------5-5-5-5-5-----------3-3-3|

[fill after] "innocence has lost its age"
E|--------------------|
B|--------------------|
G|--------------------|
D|--------------------|
A|-----5-5-7-7--------|
E|3-5h7-------7p5^-3p0|

[Bridge]
        repeat 4 times,          then
E|------------------------------|---------------|
B|3-3-3-3-3-3--0-0-0-0-0-0-0-0-0|---------------|
G|5-5-5-5-5-5--2-2-2-2-2-2-2-2-2|7-7-7-7-7-7-7-7|
D|5-5-5-5-5-5--2-2-2-2-2-2-2-2-2|7-7-7-7-7-7-7-7|
A|3-3-3-3-3-3--0-0-0-0-0-0-0-0-0|5-5-5-5-5-5-5-5|
E|------------------------------|---------------|

[Solo]
E|----------------------------------------------------------------------------------|
B|3-3-3-3-3-3-3-3-3-3-3-------------------------------------------------------------|
G|4-4-4-4-4-4-2-2-2-2-2-0-0-2h4p2p0h2~~---------------------12-12--------------12---|
D|----------------------------------------------12-12--12h14------12-----12h14-12---|
A|-------------------------------------x-x-12h14-----14-------------14p12-----------|
E|----------------------------------------------------------------------------------|

E|------------------------------------------------------------------------------------|
B|----------------15^------------15^-----------------------------12-13----------15^15-|
G|-------------12-14^-14-----12--14^-----------------12-----12-14-----12h14-----14^14-|
D|12-----12h14-12-------14p12-------12-12h14-14-12h14--12-14---------------12-12------|
A|--14p12-----------------------------------------------------------------------------|
E|------------------------------------------------------------------------------------|
 (12s not 1 2s)
E|-------------------------------------------------------------------------|
B|---------------------------------------------17-15~~~--------------------|
G|-------------------------121212/141414/151515----------------------------|
D|12-12121212/141414/151515------------------------------------------------|
A|-----------------------------------------------------------10-----10h12~~|
E|------------------------------------------------------10h12--12p10-------|

[Chorus]
    C         D                 Em        C                D              G
E|3-3-3-3---2-2-2-2-2----------0-0-0-----3-3-3-3-----------2-2-2-2-------3-3-3-3-|
B|3-3-3-3---3-3-3-3-3----------0-0-0-----3-3-3-3-----------3-3-3-3-------3-3-3-3-|
G|5-5-5-5---2-2-2-2-2----------0-0-0-----5-5-5-5-----------2-2-2-2-------4-4-4-4-|
D|5-5-5-5---0-0-0-0-0----------2-2-2-----5-5-5-5-----------0-0-0-0-------5-5-5-5-|
A|3-3-3-3----------------------2-2-2-----3-3-3-3-------------------------5-5-5-5-|
E|-----------------------------0-0-0-------------------------------------3-3-3-3-|

  C              D             G                    C
E|3-3-3--------2-2-2-2-------3-3-3-3-3-----------3-3-3|
B|3-3-3--------3-3-3-3-------3-3-3-3-3-----------3-3-3|
G|5-5-5--------2-2-2-2-------4-4-4-4-4-----------5-5-5|
D|5-5-5--------0-0-0-0-------5-5-5-5-5-----------5-5-5|
A|3-3-3----------------------5-5-5-5-5-----------3-3-3|

[Outro]
    C       D       Em                 C      D    Em
E|-------------------------------------------------0--|
B|-------------------------------------------------0--|
G|-------------------------------------------------0--|
D|----4/5----------7---5-5--4-4--2-2-----4/5----- -2--|
A|--3-----3-5----5----------------------3-----3-5--2--|
E|-------------7-----------------------------------0--|

-In the solo I'm not sure but It's good , If you want you can chance and improvise with the scales
-En el solo no estoy muy seguro pero esta bien y muy cerca , Y si quieres puedes cambiarlo y improvisar
con las escalas

-If you want another Bon Jovi's song write me 'cause I know so many Bon jovi's songs ,
like my favorite "DRY COUNTY" It's so long and difficult
-Si quieres otra canción de Bon Jovi escribeme porque me se muchas canciones de Bon Jovi
sobretodo mi favorita "DRY COUNTY" es larga y dificil
                                                     Santiago Rodriguez
                                                     with a help of david de la fuente

            
            
Suggest correction
Creating personal tab
Creating personal tab
You can edit any tab online and save it as your Personal.

You can edit, replace or remove any tab part or add personal notes – all changes will be seen only by you.

Personal tabs can be accessed anytime from any device, even offline.
Learn more »
comments
print report bad tab
3 comments total.
0 reply
jhEp501 10 Feb 19, 2007 10:36 AM

nice 1..tnx!..=))

0 reply
J0RD4NK1N9 66 Sep 06, 2009 02:29 PM

this is abit wrong i think,
ive got one of the bon jovi guitar books and it has this song in it
ill have to put it on one day
ill try do to it this week sometime

0 reply
RonaldLearner 21 May 18, 2013 04:12 AM

the intro opening is C-D-E not C-F#-G

guest
Wanna post a correction for this tab? Suggest correction