Oops, an error
Loading. Please wait.

This Aint A Love Song intro tab

version 3
version 3

Intro

Whole song

Interactive

407 views 1 this week
no commentswrite comment
1 2 3 4 5
x 3
add to favorites
×
Save as Personal and add changes to this tab that will be seen only by you. Learn more ›
×
You can save this tab as Personal to edit and correct it or add notes. All changes will be seen only by you. Learn more »
launch autoscroll
font size
0
reset
how to read this tab
guitar tuner
backing track
0:00
0:00
edit
Autoscroll
slow
fast
+/-
esc
set tempo
stop
-------------------------------------------------------------------------------
                       Bon Jovi - This Ain't A Love Song
-------------------------------------------------------------------------------
Tabbed by: ra.maldonado99

Artist: Bon Jovi
Song: This Ain't A Love Song
Album: These Days

This may be a tricky intro because there are a lot of different ways to play it.
I think this is an easy one. I hope you enjoy it :D
don't forget to rate it! ;)

Tuning: Standard

e|-------------------------7----------------------------------------------------|
B|-9---9-9---9-7--7--7-7\9---5--5-5-1-1-0---------------------------------------|
G|-----------------------------------------4\6/4-------------4--6\8~------------|
D|------------------------------------------------5\6/4----4--------------------|
A|-7-7---7-7---6--5----------0--3-----------------------4h6---------------------|
E|------------------------------------------------------------------------------|

************************************

| /   slide up
| \   slide down
| h   hammer-on
| p   pull-off
| ~   vibrato

************************************

            
            
Suggest correction
Creating personal tab
Creating personal tab
You can edit any tab online and save it as your Personal.

You can edit, replace or remove any tab part or add personal notes – all changes will be seen only by you.

Personal tabs can be accessed anytime from any device, even offline.
Learn more »
Give kudos to tab author, rate the tab!
1 2 3 4 5
comments
print report bad tab
guest
You may want to rate the tab now too:
select rating
Wanna post a correction for this tab? Suggest correction