Oops, an error
Loading. Please wait.

This Aint A Love Song Tab

version 1
version 1

Whole song

Interactive

35,183 views 12 this week
1 commentread comment
1 2 3 4 5
accurate
x 4
add to favorites
launch autoscroll
font size
0
reset
how to read this tab
guitar tuner
Autoscroll
slow
fast
+/-
esc
set tempo
stop
Help us to improve Ultimate-Guitar.com Take our survey!
×
SONG:THIS AIN'T A LOVE SONG
ARTIST:BON JOVI
ALBUM:THESE DAYS
TABBED BY:MARIO RUIZ GAYTAN

INTRO:

|-----------------------------------------------------------|-9--9---9--7---7---9-10-12---------------------------------
|------------------------------9----7/9----9-----------5----
|------------------------------7--------10----10/12--7---7/9
|-7----7----5---5-------------------------------------------
|-----------------------------------------------------------


|------------------------------------------|
|------------------------------------5/8---|
|-----------------------------7/9----------|
|-9/11/-9---------------7/9----------------|
|----------9/11-9--7-9---------------------|
|------------------------------------------|


I should have seen it coming when the roses died,
should have seen the end of the summer in your eyes
I should have listened when you said good night you really meant good bye

|--------------------------|
|----------------12V--12---|
|--------------------------|
|-------7-9----------------|
|--7-9---------------------|
|--------------------------|


Baby ain't it funny, how you ever learn to fall
You're really on your knees, when you think you're standing tall
But only fools are 'know-it-alls' and I played that fool for you

|-14V--12-14---------------|       |---------------------|
|-------------12-14----12--|       |---------------------|
|--------------------------|       |---------------------|
|--------------------------|       |---9/11--9-----------|
|--------------------------|       |-----------9/11--9---|
|--------------------------|       |---------------------|


|--------------------------|
|--------------------------|
|--------------------------|
|--------2(VV)-------------|
|-0-2-4-------4-2-----0----|
|-------------------2------|


I cried and I cried there were nights that I died for you baby

|---------9-----------------9-------------------------------
|------10---10-----------10---10----------------------------
|----9---------9-------9---------9--------------------------
|------------------------------------12-10-12-10-12-10-12---|0----------------7-----------------------------------------
|-----------------------------------------------------------

I tried and I tried to deny that your love drove me crazy, baby

|---------9-----------------9-------------12---10---9--7--5-|------10---10-----------10---10----------------------------
|----9---------9-------9---------9------13---11---11--9--7--
|-----------------------------------------------------------
|-0----------------7----------------------------------------
|-----------------------------------------------------------

--4--2--0--|
-----------|
5--3--1----|
-----------|
-----------|

CHOROUS:(IMPROVE A BLUES WITH THIS CHORDS)

E                                       B                   c#m             A
If the love that I got for you is gone, if the river I cried ain't that long
E                                B                 A
Then I'm wrong, yeah I'm wrong, this ain't a love song



Baby, I thought you and me would stand the test of time
Like we got away with the perfect crime, 
But, we were just a legend in my mind I guess that I was blind
Remember those nights dancing at the masquerade, 
The clowns wore smiles that wouldn't fade
You and I were the renegades, some things never change

|-----------------------------------------------------------
|-----------------------------------------------------------
|--------------------------------------------------12V12-10-
|--------2VV------------------------------------------------
|-0-2-4-------4-2----------7/6---5--7/4---3--7/2------------
|-------------------2V--0-----------------------------------


It made me so mad 'cause I wanted it bad for us baby

|---------9-----------------9-------------------------------
|------10---10-----------10---10----------------------------
|----9---------9-------9---------9--------------------------
|------------------------------------12-10-12-10-12-10-12---|0----------------7-----------------------------------------
|-----------------------------------------------------------

Now it's so sad that whatever we had, ain't worth saving. -> Lick 1

|---------9-----------------9-------------12---10---9--7--5-|------10---10-----------10---10----------------------------
|----9---------9-------9---------9------13---11---11--9--7--
|-----------------------------------------------------------
|-0----------------7----------------------------------------
|-----------------------------------------------------------

--4--2--0--|
-----------|
5--3--1----|
-----------|
-----------|


CHOROUS:(IMPROVE A BLUES WITH THIS CHORDS)

E                                       B                   c#m             A
If the love that I got for you is gone, if the river I cried ain't that long
E                                B                 A
Then I'm wrong, yeah I'm wrong, this ain't a love song


SOLO:

|-----------------------------------------------------------
|-----------------------------------------------------------
|-9V-9V-7/9--------7----9-7----9-7----9-7----9V-9V--7/9-----
|--------------7/9---9------9------9------9-------------9---
|-----------------------------------------------------------
|-----------------------------------------------------------

|----------------10-12V--12-10-12--14V--12V-------|
|-12V-12---10/12----------------------------14V---|
|-------------------------------------------------|
|-------------------------------------------------|
|-------------------------------------------------|
|-------------------------------------------------|

|-12-10----12-10----12-10----12-10-----12VV|
|-------12-------12-------12-------12------|
|------------------------------------------|
|------------------------------------------|
|------------------------------------------|
|------------------------------------------|


I cried and I cried there were nights that I died for you baby

|---------9-----------------9-------------------------------
|------10---10-----------10---10----------------------------
|----9---------9-------9---------9--------------------------
|------------------------------------12-10-12-10-12-10-12-10
|-0----------------7----------------------------------------
|-----------------------------------------------------------

I tried and I tried to deny that your love drove me crazy, baby
|---------9-----------------9-------------12---10---9--7--5-|------10---10-----------10---10----------------------------
|----9---------9-------9---------9------13---11---11--9--7--
|-----------------------------------------------------------
|-0----------------7----------------------------------------
|-----------------------------------------------------------

--4--2--0--|
-----------|
5--3--1----|
-----------|
-----------|


CHOROUS:(IMPROVE A BLUES WITH THIS CHORDS)

E                                       B                   c#m             A
If the love that I got for you is gone, if the river I cried ain't that long
E                                B                 A
Then I'm wrong, yeah I'm wrong, this ain't a love song

Yeah i'm wrong,yeah i'm wrong,this ain't a love song

|-----------------------------------------------------------|-9--9---9--7---7---9-10-12---------------------------------
|------------------------------9----7/9----9-----------5----
|------------------------------7--------10----10/12--7---7/9
|-7----7----5---5-------------------------------------------
|-----------------------------------------------------------


|------------------------------------------|
|------------------------------------5/8---|
|-----------------------------7/9----------|
|-9/11/-9---------------7/9----------------|
|----------9/11-9--7-9---------------------|
|------------------------------------------|

CHORDS:
E	xx9997	B	xx9877	D	xx7775	A	xx7655
am	xx7555	E	x76450	B	x2444x




Suggest correction
comments
print report bad tab
1 comment total.
0 reply
jojojojopo 10 wrote on July 5 2003, 12:00 am

.

guest
You may want to rate the tab now too:
select rating
Wanna post a correction for this tab? Suggest correction