Oops, an error
Loading. Please wait.

This Aint A Love Song Tab

version 2
version 2

Whole song

Interactive

12,840 views 69 this week
1 commentread comment
1 2 3 4 5
accurate
x 6
add to favorites
launch autoscroll
font size
0
reset
how to read this tab
guitar tuner
Autoscroll
slow
fast
+/-
esc
set tempo
stop
Help us to improve Ultimate-Guitar.com Take our survey!
×
Contributor
Difficulty
novice
Bon Jovi - This Ain't A Love Song
Standard Tuning

INTRO
e|---------------------7---------------------------------------------|
B|---9-9-9-9-7-7-7-7h9---5-5-5---------------------------------------|
G|-----------------------6-5-----5---5-----------------------4-4/6---|
D|-----------------------7-7---7---7-----6-9/11\9----------4---------|
A|---7-7-7-7-6-0-----------7-----------7----------9/11\9\6-----------|
E|-------------------------------------------------------------------|


VERSES
Rhy Fig 1
e|---------------------7------------------------------|---------------|
B|---9---9-7---7-7-7h9---5----------------------------|---------------|
G|---9-----8---7---------6---5-5---9------------------|----4---4/6----|
D|---9-----7---7---------7---7-----9---9h11p9---------|--4------------|
A|---7-----6---5-------------7---5/7----------9h11\9--|6---2-2--2/4---|
E|---------------------------5------------------------|---------------|
 |   Up    UP                Up                       |verse 1 -      |
 |verse 2 -                                           |play from here |
 |play from here                                      \_______________/
 \_______________

 |Rhy Fig 1 Ends
 |
e|--------------------|--------------||-------------------------------------|
B|--------------------|--------------||-------------------------------------|
G|--------------------|--------------||---------------------------9-9-------|
D|---2-2-2------------|--------------||---------------------------9-9h11p9--|
A|---------4-2--------|--------------||---6/7-6v-6\5/7\4-4\3/5\2/-----------|
E|-------------2b-0---|--------------||-------------------------------------|
 |verse 1 -           |
 |play rhy fig 1      |
 \____________________/

e|---------------------------|
B|---------------------------|
G|---------------------------|
D|-----------2-2-2-----------|
A|---2-2-2/4-------2/4-2-----|
E|-----------------------4---|
 |verse 1 - play after       |
 |playing rhy fig 1          |
 \___________________________/


CHORUS
e|-----------9--------|---------9-------|---------------|---------------|
B|--------10---10-----|-------9---9-----|---7-7--7-7----|---7-7--7-7----|
G|o-----9---------9---|-----9-------9---|---8-10-8-10---|---8-10-8-10---|
D|o-------------------|-----------------|---9-9--9-9----|---9-9--9-9----|
A|----0---------------|-----------------|---------------|---------------|
E|--------------------|---9-------------|---------------|---------------|

e|---------------|----------9--------|---------9-------|
B|---7-7--7-7----|-------10---10-----|-------9---9-----|
G|---8-10-8-10---|-----9---------9---|-----9-------9---|
D|---9-9--9-9----|-------------------|-----------------|
A|---------------|---0---------------|-----------------|
E|---------------|-------------------|---9-------------|

e|----------------------------------------------------------------------|
B|---------12-------10------9-----7-----5-----4-----2-------------------|
G|------------------------------------------------------------6-4---4---|
D|---11/13----13\11----11\9---9\7---7\6---6\4---4\2-------2-------6-4---|
A|----------------------------------------------------2h4-----------2---|
E|----------------------------------------------------------0-----------|
                                        __________
                                        ||1.     |
e|--------------------------------------||-------|
B|-------------5------------------------||---2---|
G|-------------6-2-----------6-4---4---o||---2---|
D|-------4-6---6-2-----2---------6-4---o||---2---|
A|---4/6-----4---0-3/4-------------2----||---0---|
E|-----------------------2-0------------||-------|
 ______
 |2.
e|-------------------------------------------------------------|
B|---------14-------12-------10------8-----7-----5-----3-----2-|
G|-------------------------------------------------------------|
D|---12/14----14\12----12\11----11\9---9\7---7\5---5\4---4\2---|
A|-------------------------------------------------------------|
E|-------------------------------------------------------------|

e|-----------------------------------------------|
B|-----------------------5-----------------------|
G|-----6-4---4-----------6-2-----------6-4---4---|
D|---------6-4-----4-6---6-2-----2---------6-4---|
A|-----------2-4/6-----4---0-3/4-------------2---|
E|---0-----------------------------2-0-----------|

e|-------------------------------------------------------------|
B|---------14-------12-------10------8-----7-----5-----3-----2-|
G|-------------------------------------------------------------|
D|---12/14----14\12----12\11----11\9---9\7---7\5---5\4---4\2---|
A|-------------------------------------------------------------|
E|-------------------------------------------------------------|

GUITAR SOLO
e|-------------------|-------------------------------------------|
B|---10b--10b--------|---------------------------------10b-10v---|
G|---9-b--9-bp7-9v---|-------7---7-----7-9b-9b-7-9b--------------|
D|-------------------|-------9---9---7--------------9v-----------|
A|-------------------|---9-9---9-9-9-----------------------------|
E|-------------------|-------------------------------------------|

e|------10-12p10-12vp10-13vp10-13vp10-------|
B|---2/-10----------------------------12v---|
G|------------------------------------------|
D|------------------------------------------|
A|------------------------------------------|
E|------------------------------------------|
        Up

e|---12-12----12-12----12-12----12-12------|
B|---14-12----14-12----14-12----14-12------|
G|---------13-------13-------13-------13---|
D|-----------------------------------------|
A|-----------------------------------------|
E|-----------------------------------------|

CHORUS
e|----------9--------|---------9-------|---------------|---------------|
B|-------10---10-----|-------9---9-----|---7-7--7-7----|---7-7--7-7----|
G|-----9---------9---|-----9-------9---|---8-10-8-10---|---8-10-8-10---|
D|-------------------|-----------------|---9-9--9-9----|---9-9--9-9----|
A|---0---------------|-----------------|---------------|---------------|
E|-------------------|---9-------------|---------------|---------------|

e|---------------|----------9--------|---------9-------|
B|---7-7--7-7----|-------10---10-----|-------9---9-----|
G|---8-10-8-10---|-----9---------9---|-----9-------9---|
D|---9-9--9-9----|-------------------|-----------------|
A|---------------|---0---------------|-----------------|
E|---------------|-------------------|---9-------------|

e|----------------------------------------------------------------------|
B|---------12-------10------9-----7-----5-----4-----2-------------------|
G|------------------------------------------------------------6-4---4---|
D|---11/13----13\11----11\9---9\7---7\6---6\4---4\2-------2-------6-4---|
A|----------------------------------------------------2h4-----------2---|
E|----------------------------------------------------------0-----------|
 
                                        
e|-------------------------------------|
B|-------------5-----------------------|
G|-------------6-2-----------6-4---4---|
D|-------4-6---6-2-----2---------6-4---|
A|---4/6-----4---0-3/4-------------2---|
E|-----------------------2-0-----------|
 
 
e|-------------------------------------------------------------|
B|---------14-------12-------10------8-----7-----5-----3-----2-|
G|-------------------------------------------------------------|
D|---12/14----14\12----12\11----11\9---9\7---7\5---5\4---4\2---|
A|-------------------------------------------------------------|
E|-------------------------------------------------------------|

e|-----------------------------------------------|
B|-----------------------5-----------------------|
G|-----6-4---4-----------6-2-----------6-4---4---|
D|---------6-4-----4-6---6-2-----2---------6-4---|
A|-----------2-4/6-----4---0-3/4-------------2---|
E|---0-----------------------------2-0-----------|

e|-------------------------------------------------------------|
B|---------14-------12-------10------8-----7-----5-----3-----2-|
G|-------------------------------------------------------------|
D|---12/14----14\12----12\11----11\9---9\7---7\5---5\4---4\2---|
A|-------------------------------------------------------------|
E|-------------------------------------------------------------|

e|-----------------------------------------------|
B|-----------------------5-----------------------|
G|-----6-4---4-----------6-2-----------6-4---4---|
D|---------6-4-----4-6---6-2-----2---------6-4---|
A|-----------2-4/6-----4---0-3/4-------------2---|
E|---0-----------------------------2-0-----------|

e|-------------------------------------------------------------|
B|---------14-------12-------10------8-----7-----5-----3-----2-|
G|-------------------------------------------------------------|
D|---12/14----14\12----12\11----11\9---9\7---7\5---5\4---4\2---|
A|-------------------------------------------------------------|
E|-------------------------------------------------------------|

e|-------------|
B|-------------|
G|-----6-4---4-|
D|---------6-4-|
A|-----------2-|
E|---0---------|

e|-------------------------------------------------------------|
B|---------14-------12-------10------8-----7-----5-----3-----2-|
G|-------------------------------------------------------------|
D|---12/14----14\12----12\11----11\9---9\7---7\5---5\4---4\2---|
A|-------------------------------------------------------------|
E|-------------------------------------------------------------|

Intro
Verse 1
Chorus
Verse 2
Chorus
Guitar Solo
Chorus
Outro - I'll Tab Another Day
comments
print report bad tab
1 comment total.
0 reply
J0RD4NK1N9 234 wrote on May 5 2010, 08:08 pm

I made a few mistakes but you should all be able to work out what it should be

I want to post or [tab]
guest
You may want to rate the tab now too:
select rating
Please do not post tabs as comments. Select "correction" instead!