Oops, an error
Loading. Please wait.

This Aint A Love Song Tab

version 3
version 3

Whole song

Interactive

3,081 views 3 this week
no commentswrite comment
1 2 3 4 5
please rate
add to favorites
launch autoscroll
font size
0
reset
how to read this tab
guitar tuner
Autoscroll
slow
fast
+/-
esc
set tempo
stop
Help us to improve Ultimate-Guitar.com Take our survey!
×
Contributor
Difficulty
intermediate
Hey, this is one of my favorite Bon Jovi songs. I triple checked every note and this is 
sounds correct to me. I didnt tab all the licks but its enough to get you started. Hope 
helps!

*** It usually sounds better on the neck pickup.

|----------------------------------------------0------------------------------|
|-9--9-9----9--7---7--7-9-12--5---5---5-----5--0------------------------------|
|-9--9-9-------x---7----------6---5-----5------1-------------------------8-h9-|
|-9--9-9-------x---7----------7---7----5--7----2---9h11p9-------------7h9-----|
|-7--7-7--7----5---5---------------------------2----------9h11p9---7h9--------|
|----------------------------------------------0------------------------------|

***He plays some licks here, but you can probably get away with making stuff up. If not 
are the chords.

Verse:

     I should have seen it coming when the roses died
E                                          B

     Should have seen the end of summer in your eyes
D                                    A

     I should have listened when you said good night
Am                                    E

     You really meant good bye
          B

***Same chords again

     Baby ain't it funny how you never ever learn to fall
E                                       B

     You're really on your knees when you think you're standing tall
D                               A

     But only fools are know-it-alls and I've played that fool for you
Am                    E                        B


With distortion (bridge pickup)

|----------------------|
|----------------------|
|----------------------|
|----------2-2---------|
|-----2h4-----2h4-2p0--|
|----------------------|

Pre- Chorus
***I do bar chords

     I cried and cried
       A

     There were nights that I died for you baby
                C#                         B

     I tried and I tried to deny that your love drove me crazy baby
       A                       C#                          B

Chorus

     If the love that I got for you is gone
            E                           B

     If the river I've cried ain't that long
            C#                          A

     Then I'm wrong, yeah I'm wrong
              E               B

     This ain't a love song
             A

*** Same thing from beginning, but only play the verse once.
comments
We did not receive enough feedback on this tab! Please rate:
print report bad tab
1 2 3 4 5
I want to post or [tab]
guest
You may want to rate the tab now too:
select rating
Please do not post tabs as comments. Select "correction" instead!