Oops, an error
Loading. Please wait.

To The Fire Tab

version 1
version 1

Whole song

Interactive

318 views 1 this week
no commentswrite comment
1 2 3 4 5
excellent!
x 2
add to favorites
launch autoscroll
font size
0
reset
how to read this tab
guitar tuner
Tab Pro tools
  • play this tab
  • loop segment
  • change instrument
  • show fretboard
  • metronome
Autoscroll
slow
fast
+/-
esc
set tempo
stop
Contributor
Difficulty
-------------------------------------------------------------------------------
                       SONG NAME: TO THE FIRE - Band Name: BON JOVI
-------------------------------------------------------------------------------
Tabbed by:defleppardrocks

Tuning: Standard Tuning


Song starts out with bass and keyboard.

Then it goes

Guitar 1
e|---------------------------------------------------------------------------|
B|---------------------------------------------------------------------------|
G|---------------------------------------------------------------------------|
D|---------------3hb-3ph-1---------------------------------------------------|
A|-----------1-4-------------------------------------------------------------|
E|---------------------------------------------------------------------------|

Guitar 2
                    Pick slide     "We would take no prisoners 'Cause there was nobody giving in."
e|---------------------------------------------------------------------------|
B|---------------------------------------------------------------------------|
G|8--------------------------------------------------------------------------|
D|8----------------------------\-----6---------------------------------------|
A|6----------------------------\-----6---------------------------------------|
E|-----------------------------------4---------------------------------------|


"They came walking through my jungle And met an angel about to sin"

Both Guitars
e|---------------------------------------------------------------------------|
B|---------------------------------------------------------------------------|
G|---------------------------------------------------------------------------|
D|6--------------------------------------------------------------------------|
A|6--------------------------------------------------------------------------|
E|4--------------------------------------------------------------------------|
 
     I heard a voice from inside of me   When the youth of America cried: 

Both Guitars
e|---------------------------------------------------------------------------|
B|---------------------------------------------------------------------------|
G|---------------------------------------------------------------------------|
D|-6-------------------------------------------------------------------------|
A|-6-------------------------------------------------------------------------|
E|-4-------------------------------------------------------------------------|

        Can you help me,                 hear me call 

Both Guitars
(Pick slide)
e|---------------------------------------------------------------------------|
B|---------------------------------------------------------------------------|
G|---------------------------------6-----------------------------------------|
D|\-4-------------------------x-x--6-----------------------------------------|
A|\-4-------------------------x-x--4-----------------------------------------|
E|--2-------------------------x-x--------------------------------------------|


CHORUS

Both Guitars

e|------------------------------------------------------------------------------------|
B|------------------------------------------------------------------------------------|
G|------------------------------------------------------------------------------------|
D|------------------------------------------------------------------------------------|
A|4-6-6-6-6-4---6--4-6-6-6-6-4---6---4-6-6-6-6-4---6--4-6-6-6-6-4---6--4-6-6-6-6-4---6|
E|------------6----------------6-----------------6----------------6----------------6--|

e|---------------------------------------------------------------------------|
B|---------------------------------------------------------------------------|
G|---------------------------------------------------------------------------|
D|---------------------------------------------------------------------------|
A|4-6-6-6-4---6---4-6-6-6-6-4---6--4-6-6-6-6-4---6---------------------------|
E|----------6-----------------6----------------6-----------------------------|

VERSE: 2
When your a part of sociaty You know, the heart of your innocence dies. 

BOTH GUITARS
e|---------------------------------------------------------------------------|
B|---------------------------------------------------------------------------|
G|---------------------------------------------------------------------------|
D|\-6------------------------------------------------------------------------|
A|\-6------------------------------------------------------------------------|
E|--4------------------------------------------------------------------------|
                                        When we met the Authority
Both Guitars
e|---------------------------------------------------------------------------|
B|---------------------------------------------------------------------------|
G|---------------------------------------------------------------------------|
D|-----------------------------------6----------------------------------------|
A|4-6-6-6-4---6---4-6-6-6-6-4---6----6---------------------------------------|
E|----------6-----------------6------4-------------------------------------|

 I looked him right between the eyes 

Both Guitars
e|---------------------------------------------------------------------------|
B|---------------------------------------------------------------------------|
G|---------------------------------------------------------------------------|
D|---------------------------------------------------------------------------|
A|-----------------------------------4-6-6-6-6-4---6---4-6-6-6-4---6---------|
E|-----------------------------------------------6---------------6-----------|

Cause all we had was our innocence  All we had was our hearts to try to win the fight you tell me 

BOTH GUITARS
e|---------------------------------------------------------------------------|
B|---------------------------------------------------------------------------|
G|--------------------------------------------------------3------------------|
D|6-------------------------------------------------------3------------------|
A|6-------------------------------------------------------1------------------|
E|4--------------------------------------------------------------------------|

              Can you save me,              from it all

BOTH GUITARS 
(pickslide)
e|---------------------------------------------------------------------------|
B|---------------------------------------------------------------------------|
G|---------------------------------------6-----------------------------------|
D|\--------4-------------------------x-x-6-----------------------------------|
A|\--------4-------------------------x-x-4-----------------------------------|
E|---------2-------------------------x-x-------------------------------------|


CHORUS

Both Guitars

e|------------------------------------------------------------------------------------|
B|------------------------------------------------------------------------------------|
G|------------------------------------------------------------------------------------|
D|------------------------------------------------------------------------------------|
A|4-6-6-6-6-4---6--4-6-6-6-6-4---6---4-6-6-6-6-4---6--4-6-6-6-6-4---6--4-6-6-6-6-4---6|
E|------------6----------------6-----------------6----------------6----------------6--|

e|---------------------------------------------------------------------------|
B|---------------------------------------------------------------------------|
G|---------------------------------------------------------------------------|
D|---------------------------------------------------------------------------|2x
A|4-6-6-6-4---6---4-6-6-6-6-4---6--4-6-6-6-6-4---6---------------------------|
E|----------6-----------------6----------------6-----------------------------|


SOLO:
1st guitar
e|-----------14------16fbr--16-14-16-16fb-16-16-14-16fbr-14----14-14----14---16-16-14----|
B|-----14h16----16------------------------------------------16-------16----------------16|
G|13h15----------------------------------------------------------------------------------|
D|---------------------------------------------------------------------------------------|
A|---------------------------------------------------------------------------------------|
E|---------------------------------------------------------------------------------------|

2nd Guitar
e|---------------------------------------------------------------------------------------|
B|-----------------8---------------------------------------------------------------------|
G|-----------------8---------------------------------------------------------------------|
D|-----------------6---------------------------------------------------------------------|
A|---------------------------------------------------------------------------------------|
E|---------------------------------------------------------------------------------------|

1st guitar
e|---------18-18-18-18-18-18-18-18-16----16-16-14\---21hb---14-16-14---------|
B|------------------------------------15-----------------------------16---14-|
G|-12fbr\--------------------------------------------------------------------|
D|---------------------------------------------------------------------------|
A|---------------------------------------------------------------------------|
E|---------------------------------------------------------------------------|

2nd Guitar
                                                   Pickslide
e|----------------------------------------------------------------------------|
B|--------8-------------------------------------------------------------------|
G|--------8-------------------------------------------------------------------|
D|--------6--------------------------------------------\-------------4--------|
A|-----------------------------------------------------\-------------4--------|
E|-------------------------------------------------------------------2--------|

 Can you help me,         hear me call        Can you save me              from it all

Both Guitars
e|---------------------------------------------------------------------------|
B|---------------------------------------------------------------------------|
G|----------------------6-------------------------------------------6--------|
D|------------------x-x-6--------------\-----4------------------x-x-6--------|
A|------------------x-x-4--------------\-----4------------------x-x-4--------|
E|------------------x-x----------------------2------------------x-x----------|


CHORUS: (Repeat until end of song)

Both Guitars

e|------------------------------------------------------------------------------------|
B|------------------------------------------------------------------------------------|
G|------------------------------------------------------------------------------------|
D|------------------------------------------------------------------------------------|
A|4-6-6-6-6-4---6--4-6-6-6-6-4---6---4-6-6-6-6-4---6--4-6-6-6-6-4---6--4-6-6-6-6-4---6|
E|------------6----------------6-----------------6----------------6----------------6--|


************************************

| /   slide up
| \   slide down
| h   hammer-on
| p   pull-off
| ~   vibrato
| +   harmonic
| x   Mute note
| b   Bend
| pb  Pre-bend
| br  Bend release
| pbr Pre-bend release
| brb Bend release bend
| ph  Pinch Harmonic

************************************
comments
We did not receive enough feedback on this tab! Please rate:
print report bad tab
1 2 3 4 5
I want to post or [tab]
guest
You may want to rate the tab now too:
select rating
Please do not post tabs as comments. Select "correction" instead!