Oops, an error
Loading. Please wait.

Two Story Town Tab

version 2
version 2

Whole song

Interactive

1,512 views 1 this week
no commentswrite comment
1 2 3 4 5
excellent!
x 6
add to favorites
launch autoscroll
font size
0
reset
how to read this tab
guitar tuner
Tab Pro tools
  • play this tab
  • loop segment
  • change instrument
  • show fretboard
  • metronome
Autoscroll
slow
fast
+/-
esc
set tempo
stop
Contributor
Difficulty
intermediate
Intro: Am | F  | C | G | x2

The little intro piece after the 1, 2, 1 2

E|---------------|------------------|2nd measure 2x's
B|-0h1-0---------|------------------|
G|--------2-0-2--|--12h14---14-12---|
D|---------------|------------------|
A|---------------|------------------|
E|---------------|------------------|

Am          F
I couldn't sleep 
       C                 G
Took a walk down Second Avenue 
Am      F        C                 G
Sick of dreaming dreams that never come true 
Am           F     C               G         Am F C G   (Fill:1st measure of lead)    
One way street and I know where its leading to 
Am                    F          C                 G
There's a "For Sale" sign on the front door of the city hall 
Am         F        C                 G
The subway line got graffiti crawling off the wall 
Am             F       C               G        Am F C G
I could take a hit but I ain't want to take the fall 
F                        G
Who, oh.   That's just one side of the story 
F                   G 
Who, oh, oh. In this two story town 

Chorus: 
              Am       F
It's just the same old sights 
         C        G
And the same old sounds 
             Am               F               C          G
I-m going to take my car and drive out of this two story town 
    C        G        Am      G
The same old shit, is going around
          F                       G
I'm going down, down, down, down, down 
it's a two-story town 


(Repeat 2nd measure of Intro)

Am                     F              C        G
There's a girl that I sleep with, got ecstasy eyes,
Am                F         C        G
they promised her roses and American pies
Am                  F
I called her and my demons 
C              G      Am F C G
I kissed them all goodbye 
F              G
Woh, oh. Seven days of Monday morning 
F                 G
Woh, oh, oh. In a two story town 

Chorus: 

Am
One shot to make a move now 
F 
The ghosts are calling me out 

Solo: Am | F | G | C | x2 (each bar is worth 4 beats in the solo)
guitar solo:

E|-------------------------------------------------------|
B|----8b10~~~~~--8b10r8--5--8b10~~~~~--8b10r8-5----------|
G|-----------------------------------------------7~~~~~~-|
D|-------------------------------------------------------|
A|-------------------------------------------------------|
E|-------------------------------------------------------|

                                  /BEND, ALTERNATE PICK\
E|---------------------------------10b10b10b10b10b10b10b-8--------|
B|---------------------------------------------------------10~~~~-|
G|------5-7b~~~~~r7~~~---5------7---------------------------------|
D|----7----------------7------------------------------------------|
A|----------------------------------------------------------------|
E|----------------------------------------------------------------|


E|-------------------------10b10b10b-8----------------------------|
B|----12b13r12---8---10-----------------10---8-10~~~~~------------|
G|----------------------------------------------------------------|
D|----------------------------------------------------------------|
A|----------------------------------------------------------------|
E|----------------------------------------------------------------|

            Am       F
Well me I'm just one story 
     C         G
in a two story town 
           Am             F              C        G:let ring
But you're never going to find me in the lost and found 

Chorus: 

Chorus 2: 
              Am       F              C        G
It's just the same old sights and the same old sounds 
          Am                F                C        G
I want to take my horse and ride it off this merry-go-round 
  Am         F        C          G
I won't give in and I won't back down 
F                                    G
I'm not going down, down, down, down, down 
F                                   G
Never going down, down, down, down, down
F                                     G
I ain't going down, down, down, down, down 
Am        F         C       G
In a two-story town,
Am          F         C        G
In this two story town.

Outro: First measure of intro then second measure 5x's
comments
print report bad tab
I want to post or [tab]
guest
You may want to rate the tab now too:
select rating
Please do not post tabs as comments. Select "correction" instead!