Oops, an error
Loading. Please wait.

Wanted Dead Or Alive Chords

version 1
version 1

Whole song

  • This is similar to other versions changing the C c... Show more
  • A few chords missing in other versions.
  • My version uses the Cadd9 chord used in the origin... Show more
  • This version has the guitar solo tabs and it has a... Show more

Interactive

1,166,587 views 2,733 this week
13 commentsread comments
1 2 3 4 5
excellent!
x 463
add to favorites
launch autoscroll
font size
0
reset
transpose
0
reset
display chords
guitar tuner
Autoscroll
slow
fast
+/-
esc
set tempo
stop
Help us to improve Ultimate-Guitar.com Take our survey!
×
Bon Jovi – Dead or Alive

[Intro]

e|-------13-----|-------12-----|-------10-----|------8----|------5----|------3----|---3/1---|
B|--------------|--------------|--------------|-----------|-----------|-----------|---------|
G|----14----14--|----12----12--|----10----10--|----9---9--|----5---5--|----4---4--|---4/2---|
D|--0-----------|--0-----------|--0-----------|--0--------|--0--------|--0--------|---------| x2
A|--------------|--------------|--------------|-----------|-----------|-----------|---------|
E|--------------|--------------|--------------|-----------|-----------|-----------|---------|

e|----------------------------|--0-----------------|    e|-----0---2---|
B|----------------------------|-----3--3-----------|    B|-----1---3---|
G|----------------------------|-----------2-----2--|    G|-----2---2---|
D|----------------0---3b---0--|--------------0-----| x3 D|-----3---0---| x1
A|--0---0---3b----------------|--------------------|    A|--3--3---0---|
E|----------------------------|--------------------|    E|-------------|

[Verse 1]

D                  C                   G   
It's all the same, only the names will change
C            G                F       D  
And ev'ry day, it seems we're wasting away
D               C                      G
Another place , where the faces are so cold
C             G               F        D
I'd drive all night , just to get back home

[CHORUS]

C          G        F             D                    
I'm a cowboy , on a steel horse I ride
C         G  F       D 
I'm wanted , dead or alive
C     G   F      D 
Wanted , dead or alive

e|-------13-----|-------12-----|-------10-----|------8----|------5----|------3----|---3/1---|
B|--------------|--------------|--------------|-----------|-----------|-----------|---------|
G|----14----14--|----12----12--|----10----10--|----9---9--|----5---5--|----4---4--|---4/2---|
D|--0-----------|--0-----------|--0-----------|--0--------|--0--------|--0--------|---------| x2
A|--------------|--------------|--------------|-----------|-----------|-----------|---------|
E|--------------|--------------|--------------|-----------|-----------|-----------|---------|

[Verse 2]

D                   C                    G 
Sometimes I sleep , sometimes is not for days
C                G        F                 D
and people I meet, always go their separate ways
D                            C                      G
Sometimes you tell the day , by the bottle that you drink
C                    G            F             D
And times when you´r alone , and all you do is think


[CHORUS]

C           G      F             D                    
I'm a cowboy, on a steel horse I ride
C         G   F      D 
I'm wanted , dead or alive
C     G  F       D
Wanted , dead or alive

e|-------13-----|-------12-----|-------10-----|------8----|------5----|------3----|---3/1---|
B|--------------|--------------|--------------|-----------|-----------|-----------|---------|
G|----14----14--|----12----12--|----10----10--|----9---9--|----5---5--|----4---4--|---4/2---|
D|--0-----------|--0-----------|--0-----------|--0--------|--0--------|--0--------|---------| x2
A|--------------|--------------|--------------|-----------|-----------|-----------|---------|
E|--------------|--------------|--------------|-----------|-----------|-----------|---------|

[Verse 3]

D                          C                        G  
And I walk these streets , a loaded six string on my back
C               G          F                 D
I play for keeps, 'cause I might not make it back
D                 C                  G
Been ev'ry where, still I'm standing tall
C                  G                F         D  
I've seen a milion faces , and I've rock them all

[Outro]

C                  G        F             D
'Cause I'm a cowboy , on a steel horse I ride
C           G         F       D     
I'm wanted (wanted) , dead or alive
C                G            F           D
Well I'm a cowboy , I got the night on my side
C          G          F       D  
I'm Wanted (wanted) , dead or alive
C       G       C       G
Dead or Alive , Dead or alive
C       G        F         D
Dead or alive ,I still ride  (still ride)
C       G       C       G
Dead or alive , Dead or alive
C       G       C       G
Dead or alive , dead or alive
C       G 
Dead or alive , Dead or alive

e|-------13-----|-------12-----|-------10-----|------8----|------5----|------3----|---3/1---|
B|--------------|--------------|--------------|-----------|-----------|-----------|---------|
G|----14----14--|----12----12--|----10----10--|----9---9--|----5---5--|----4---4--|---4/2---|
D|--0-----------|--0-----------|--0-----------|--0--------|--0--------|--0--------|---------| x2
A|--------------|--------------|--------------|-----------|-----------|-----------|---------|
E|--------------|--------------|--------------|-----------|-----------|-----------|---------|

to 1 and 2 on second time strum D chord

****************

/  Slide UP

****************
Suggest correction
What's this?
You can suggest a correction to this tab. Community and Mods will review your correction and vote to approve or reject it.
comments
print report bad tab
13 comments total. Showing first comments.
+7 reply
xorb 154 wrote on August 10 2009, 10:03 am

|--0-----------------|
|-----3--3-----------|
|-----------2-----2--|
|--------------0-----|
|--------------------|
|--------------------|

Should be:

|--0-----------------|
|-----3----3---------|
|--------2----2------|
|--------------------|
|------------------0-|
|--------------------|

0 reply
chadjordan7 58 wrote on June 7 2010, 04:06 pm

sweet tab brah

+8 reply
chadjordan7 58 wrote on June 7 2010, 04:10 pm

C should be Cadd9 though

guest
You may want to rate the tab now too:
select rating
Please do not post tabs as comments. Select "correction" instead!