Oops, an error
Loading. Please wait.

Wanted Dead Or Alive Tab

version 2
version 2

Intro

Interactive

Video

158,627 views 150 this week
4 commentsread comments
1 2 3 4 5
accurate
x 26
add to favorites
launch autoscroll
font size
0
reset
how to read this tab
guitar tuner
Tab Pro tools
  • play this tab
  • loop segment
  • change instrument
  • show fretboard
  • metronome
×
Best way to learn
"Wanted Dead Or Alive"
Autoscroll
slow
fast
+/-
esc
set tempo
stop
Contributor
¤ = Artificial harmonic 
b = Bend 
~ = Vibrato
p = Play 
h = Play  

Intro

e|---------13-------------------12------------------10-------|
B|-----------------------------------------------------------|
G|----14-------14---------12-------12--------10---------10---|
D|--0-------------------0-----------------0------------------|
A|-----------------------------------------------------------|
E|-----------------------------------------------------------|

e|---------8----------------5-----------------------3--------|
B|-----------------------------------------------------------|
G|----9------9--------5--------5------------4----------4-----|
D|-0-------------0--------------------0----------------------|
A|-----------------------------------------------------------|
E|-----------------------------------------------------------|

e|----3/1---|
B|----------|
G|----4/2---|
D|----------|
A|----------|
E|----------|


e|--------------------------------0----------0-------------------|
B|-----------------------------------3---------3-----------------|
G|--------------------------2-----------2--------2---------------|
D|----------------0---3b---0-------------------------------------|
A|--0---0---3b---------------------------------------------------|
E|---------------------------------------------------------------|
comments
print report bad tab
4 comments total. Showing first comments.
+3 reply
rev_rocker8908 wrote on January 15 2009, 02:35 pm

here at the second part of the intro try it like this

e|----------------0------1-----------------0-----1--------|
B|------------------3------3-----------------3-----3------|
G|--------------------2------------------------2----------|
D|---------0-3b-0-------------------0-3b-0----------------|
A|--0-0-3b-------------------0-0-3b-----------------------|
E|--------------------------------------------------------|

+1 reply
DeLTaR wrote on January 2 2012, 10:29 pm

e|----13-------13-----
B|--------------------
G|---------14---------
D|--0-----------------
A|--------------------
E|--------------------

0 reply
dlmaw747 wrote on October 28 2014, 11:16 pm

this,hanks will work for me!

I want to post or [tab]
guest
You may want to rate the tab now too:
select rating
Please do not post tabs as comments. Select "correction" instead!