Oops, an error
Loading. Please wait.

Wanted Dead Or Alive Bass Tab

version 3
version 3

Whole song

Interactive

5,118 views 6 this week
no commentswrite comment
1 2 3 4 5
2 more votes to show rating
add to favorites
launch autoscroll
font size
0
reset
guitar tuner
Autoscroll
slow
fast
+/-
esc
set tempo
stop
Help us to improve Ultimate-Guitar.com Take our survey!
×
Author
Difficulty
novice
Bon Jovi-Wanted Dead or Alive Bass Tab
By:Chris S.


INTRO

|-----~-----|-----~-----|------~------|-----~-----|----~----|
|-----~-----|-----~-----|------~------|-----~-----|----~----|
|-----~-----|-----~-----|------~------|-----~-----|----~----|
|-----~-----|-----~-----|------~------|-----~-----|----~----|


    
||-----~------|------~------|-----~-----|----~-----||
||o----~------|------~------|-----~-----|----~----o||
||o----~------|------~------|-----~-----|----~----o||
||-----~------|------~------|-----~-----|----~-----||


 Verse
  
|----~----||
|----~----||
|----~----||
|----~----||


 Chorus
 1st half                 2nd half
|----------------------|---------------------------|
|-------------------0-0|---------------0-0---------|
|--3-----3-3-3---------|--3------3-3---------------|
|-----3---------1-1----|----3----------------------|





 Versex2
  
|---------------------------|
|---0--0----------------0(0)|
|---------3-----3-3---------|
|------------3------1-1-----|


  



  



 Chorus
 1st half                 2nd half
|----------------------|---------------------------|
|-------------------0-0|---------------0-0---------|
|--3-----3-3-3---------|--3------3-3---------------|
|-----3---------1-1----|----3----------------------|  




 Guitar Solox2
 
|---------------------------|
|---0--0----------------0---|
|---------3-----3-3---------|
|------------3------1-1-----|


 


 Chorus
1st half                 
|----------------------|----------------------|
|-------------------0-0|----------------------|
|--3-----3-3-3---------|--3---555555555555555-|
|-----3---------1-1----|----3-----------------|  



Verse
|---------------------------|
|---0--0----------------0(0)|
|---------3-----3-3---------|
|------------3------1-1-----|                      


Chorus
 1st half(skip this half)       2nd half(play til the slow outro)
|---------------------------|---------------------------|
|-------------------0-0-----|---------------0-0---------|
|--3-----3-3----------------|--3------3-3---------------|
|-----3---------1-1---------|----3----------------------|  
    


  
My first tab hope you guys like it

contact me at c.shadows@yahoo.com

RATE IT!
Suggest correction
Give kudos to tab author, rate the tab!
1 2 3 4 5
comments
print report bad tab
guest
You may want to rate the tab now too:
select rating
Wanna post a correction for this tab? Suggest correction