Oops, an error
Loading. Please wait.

We Can Dance Tab

612 views 1 this week
2 commentsread comments
1 2 3 4 5
please rate
add to favorites
launch autoscroll
font size
0
reset
how to read this tab
guitar tuner
Autoscroll
slow
fast
+/-
esc
set tempo
stop
Help us to improve Ultimate-Guitar.com Take our survey!
×
Contributor
aaciseric 618
Just an intro because the chords are already in another tab,
pretty simple riff but if you're a new player you may need
to work on the muted notes.

e|---------------|----------------|
B|---------------|----------------|
G|---------------|----------------|
D|6-6-6-6-6-4/6/7|7-7-7-7-7-7-7-7-|
A|x-x-x-x-x-x/x/x|x-x-x-x-x-x-x-x-|
E|0-0-0-0-0-0-0/0|0-0-0-0-0-0-0-0-|

The first note of the second bar isn't played but held over from the first.

Alternatively you can play this:

e|---------------|----------------|
B|---------------|----------------|
G|---------------|----------------|
D|6---6---6-4/6/7|7-7-7-7-7-7-7-7-|
A|---------------|--x-x-x-x-x-x-x-|
E|--0---0--------|--0-0-0-0-0-0-0-|

That's all, check out the Chord version of this song to go with the riff, thanks for 
this out, any corrections or problems PM me or write
them in the comments section and i'll work on it.
Suggest correction new What's this?
You can suggest a correction to this tab. Community and Mods will review your correction and vote to approve or reject it.
comments
We did not receive enough feedback on this tab! Please rate:
print report bad tab
1 2 3 4 5
2 comments total.
0 reply
jrjsamartgis 113 wrote on November 6 2009, 05:35 am

why not just play
a-11----9--11---12---
e--0----0---0---0----

0 reply
aaciseric 618 wrote on November 23 2009, 04:48 pm

You can do it that way but I personally like the sound that the muted notes give it. Though you'rs is probably the easiest way.

guest
You may want to rate the tab now too:
select rating
Please do not post tabs as comments. Select "correction" instead!