Oops, an error
Loading. Please wait.

We Werent Born To Follow Tab

version 1
version 1

Solo

Whole song

Interactive

17,338 views 3 this week
1 commentread comment
1 2 3 4 5
excellent!
x 7
add to favorites
launch autoscroll
font size
0
reset
how to read this tab
guitar tuner
Autoscroll
slow
fast
+/-
esc
set tempo
stop
Help us to improve Ultimate-Guitar.com Take our survey!
×
Contributor
Difficulty
hbwold 62
intermediate
We Weren't Born To Follow (Guitar Solo) - Bon Jovi

http://www.youtube.com/watch?v=UFizR6vnMW0

Any comments/questions post to my Youtube video above

(h) - Hammer on
(p) - Pull off
(b) - Bend
(r) - Release note
(pb) - Pre-Bend
x - Palm mute
~ - Vibrato
* - Pinch harmonic
/ - Slide up
\ - Slide down


E|-------7-----------------------7------------------------7------------------------7--------------|
B-7(h)9-----7(h)9(p)7-----7(h)9-----7(h)9(p)7------7(h)9-----7(h)9(p)7------7(h)9-----7(h)9(p)7---|
G|---------------------8-----------------------8------------------------8------------------------8|
D|------------------------------------------------------------------------------------------------|
A|------------------------------------------------------------------------------------------------|
E|------------------------------------------------------------------------------------------------|

E|--------7--9(b)11(r)9(p)7--9~~---------------------------------------------|
B|--7--9-----------------------------x-x-x--14(pb)17*---14(b)16(r)14--12~~---|
G|-----------------------------------x-x-x-----------------------------------|
D|-----------------------------------x-x-x-----------------------------------|
A|-----------------------------------x-x-x-----------------------------------|
E|---------------------------------------------------------------------------|

E|-----------------------------------------------------------------------------|
B|-/12--12--12\11--11--11--11\9--9--9--9\7--7--7--7\5--5--5--5\4--4--4--4\2--2-|
G|-----------------------------------------------------------------------------|
D|-----------------------------------------------------------------------------|
A|-----------------------------------------------------------------------------|
E|-----------------------------------------------------------------------------|

E|-------------------------------------------------------|
B|-2--2(h)4(p)2(p)0--2~~---------------------------------|
G|---------------------------3(b)4(r)3-------------------|
D|-------------------------------------4-----------------|
A|---------------------------------------4*\whammy dive--|
E|-------------------------------------------------------|
comments
print report bad tab
1 comment total.
0 reply
Dantyke 248 wrote on November 18 2010, 04:32 pm

perfect 5*

I want to post or [tab]
guest
You may want to rate the tab now too:
select rating
Please do not post tabs as comments. Select "correction" instead!