Oops, an error
Loading. Please wait.

We Werent Born To Follow Tab

version 2
version 2

Solo

Whole song

Interactive

4,263 views 1 this week
no commentswrite comment
1 2 3 4 5
1 last vote to show rating
add to favorites
launch autoscroll
font size
0
reset
how to read this tab
guitar tuner
Autoscroll
slow
fast
+/-
esc
set tempo
stop
Help us to improve Ultimate-Guitar.com Take our survey!
×
Author
Difficulty
intermediate
-------------------------------------------------------------------------------
                             We Weren't Born to Follow - Bon Jovi
-------------------------------------------------------------------------------
Tabbed by: Matt

Tuning: Standard

Solo:

e|--------7-------------7-------------7-------------7-9b11r9p7-9~------------|
B|----7h9---9p7---7-7h9---9p7---7-7h9---9p7---7-7h9--------------------------|
G|--------------8-------------8-------------8--------------------------------|
D|---------------------------------------------------------------------------|
A|---------------------------------------------------------------------------|
E|---------------------------------------------------------------------------|

e|-----X---X--------------------------0--0--0--0--0--0-0-0-0-0-0-0-0-0-0-0---|
B|-----X---X---14b17--14b16r14--12~--12-12-12-11-11-11-9-9-9-7-7-7-5-5-5-4---|
G|-----X---X-----------------------------------------------------------------|
D|-----X---X-----------------------------------------------------------------|
A|-----X---X-----------------------------------------------------------------|
E|-----X---X-----------------------------------------------------------------|

e|--0-0----------------------------------------------------------------------|
B|--4-4-2h4p2p0-2~-----------------------------------------------------------|
G|------------------3*b4-----------------------------------------------------|
D|-----------------------4---------------------------------------------------|
A|-------------------------4~\-----------------------------------------------|
E|---------------------------------------------------------------------------|

Outro Lick:

e|---------------------------------------------------------------------------|
B|--2h4-4/5-5-5b7r5-5\4-4-4b5r4-4b5r4p2~-------------------------------------|
G|---------------------------------------------------------------------------|
D|---------------------------------------------------------------------------|
A|---------------------------------------------------------------------------|
E|---------------------------------------------------------------------------|


************************************

| /   Slide up
| \   Slide down
| h   Hammer-on
| p   Pull-off
| ~   Vibrato
| *   Pinch harmonic
| x   Mute note
| b   Bend
| pb  Pre-bend
| br  Bend release
| pbr Pre-bend release
| brb Bend release bend

************************************
Suggest correction
Give kudos to tab author, rate the tab!
1 2 3 4 5
comments
print report bad tab
guest
You may want to rate the tab now too:
select rating
Wanna post a correction for this tab? Suggest correction