Oops, an error
Loading. Please wait.

We Werent Born To Follow Chords

version 3
version 3

Whole song

Interactive

6,722 views 3 this week
no commentswrite comment
1 2 3 4 5
x 4
add to favorites
launch autoscroll
font size
0
reset
transpose
0
reset
simplify chords
display chords
guitar tuner
Autoscroll
slow
fast
+/-
esc
set tempo
stop
Help us to improve Ultimate-Guitar.com Take our survey!
×
PTL


        Bon Jovi-We Weren't Born To Follow 
                From The Circle

By Sanjeev George, Basil George and Thomas George

Contact at SanjeevGeorge123@yahoo.co.in

Hope it’s accurate. Please rate

Tuning: half step down

Intro :    C   F   G
           F   C   G
Verse
   C
This one goes out to the man who mines for miracles
    Am7
This one goes out to the ones in need
   Dsus4
This one goes out to the sinner and the cynical
  G
This ain't about no apology

    C
This road was paved by the hopeless and the hungry
   Am7
This road was paved by the winds of change
   Dsus4
Walking beside the guilty and the innocent
     G
How will you raise your hand when they call your name?

 F            C
Yeah, yeah, yeah
Chorus

   C                F
We weren't born to follow
   G                      Dsus
Come on and get up off your knees
                C               F
When life is a bitter pill to swallow
    G                          Dsus
You gotta hold on to what you believe
    C                             F
Believe that the sun will shine tomorrow
             G                   Am
And that your saints and sinners bleed
   C                  F
We weren't born to follow
               G
You gotta stand up for what you believe
 
                     C           F         G
Let me hear you say yeah, yeah, yeah, oh yeah

Verse 2
    C
This one's about anyone who does it differently
  Am7                            
This one's about the one who curses and spits
 Dsus4
This ain't about our living in a fantasy
    G
This ain't about giving up or giving in

  F        C
Yeah, yeah, yeah

Chorus
   C                F
We weren't born to follow
   G                      Dsus
Come on and get up off your knees
         C                        F
When life is a bitter pill to swallow
    G                          Dsus
You gotta hold on to what you believe
                C                  F
Believe that the sun will shine tomorrow
             G                   Am
And that your saints and sinners bleed
   C                  F
We weren't born to follow
               G
You gotta stand up for what you believe
 
                       C        F         G
Let me hear you say yeah, yeah, yeah, oh yeah
                       C        F         G
Let me hear you say yeah, yeah, yeah, oh yeah

Solo:


e|-------------------------------------------------------------------------|
B|--------13----------------13----------------13---------------------------|
G|--12-14----14-12----12-14----14-12----12-14---14-12h14p12h14p12h14p12----|
D|-----------------14----------------14---------------------------------14-|
A|-------------------------------------------------------------------------|
E|-------------------------------------------------------------------------|

e|------------------------------------------------------------------------|
B|-------13---------------------------------13----------15b17r15-13-15vv--|
G|-12-14---14-12h14p12h14p12h14p12----12-14----14-12----------------------|
D|---------------------------------14----------------14-------------------|
A|------------------------------------------------------------------------|
E|------------------------------------------------------------------------|

e|--------12b13----------------------15---------------------------------|
B|---------------15b17r15-13---12-13-----13-12-12—12/10-10-10--10/8-8-8—|
G|----------------------------------------------------------------------|
D|----------------------------------------------------------------------|
A|-x-x-x----------------------------------------------------------------|
E|-x-x-x----------------------------------------------------------------|
   . . . 
e|---------------------------------------------------------------|
B|-8/6-6-6—6/5-5-5—5/3-3-3-3h5p3—--3vv---------------------------|
G|-------------------------------5------4b5r4--------------------|
D|--------------------------------------------5-0 (dive down with|
A|-------------------------------------------------- whammy bar )|
E|---------------------------------------------------------------|




Chorus again
  F       C               G
We weren't born to follow, oh yeah
(Yeah, yeah, yeah, oh yeah)
  F       C               G
We weren't born to follow, oh yeah
(Yeah, yeah, yeah, oh yeah)

Ends on F  C  G
Suggest correction
comments
print report bad tab
guest
You may want to rate the tab now too:
select rating
Wanna post a correction for this tab? Suggest correction