Oops, an error
Loading. Please wait.

Who Says You Cant Go Home bass

version 1
version 1

Whole song

Interactive

421 views 3 this week
no commentswrite comment
1 2 3 4 5
3 more votes to show rating
add to favorites
×
Save as Personal and add changes to this tab that will be seen only by you. Learn more ›
×
You can save this tab as Personal to edit and correct it or add notes. All changes will be seen only by you. Learn more »
launch autoscroll
font size
0
reset
guitar tuner
backing track
0:00
0:00
edit
Autoscroll
slow
fast
+/-
esc
set tempo
stop
Author
Who Says You Can’t Go Home
Single release by Bon Jovi taken from their ninth studio album
Have A Nice Day, around 2005/6. Bass performance Hugh McDonald.
Tab by bass50611. Not exact but a pleasant song to play along to.
‘.’ Denotes pause’s.  Comments at bass254@btinternet.com 

Intro:
  ‘.’  ‘.’  ‘.’  ‘.’                                      ‘.’
G|-----------------------------------------------------------|
D|-----------------------------------------------------------|
A|------3----0----3---3-3-3----------3---3--3-2-0---0--0---5-|
E|-3-------------------------3---3---------------------------|

Verse 1:
G|-----------------------------------------------------------------|
D|-----------------------------------------------------------------|
A|--------3---3--3-2-0---0--0-2-3---3--2-0--------3---3--3-4-5---5-|
E|-3---3-----------------------------------3---3-------------------|

        (Play Verse 1 x2)
G|-----------|
D|-----------|
A|-5--5-5--5-|
E|-----------|

Bridge:
  ‘.’
G|------------------------------------------------------------|
D|------------------------------------------------------------|
A|--------2--3--3--2-0-------------0-1-2--2---3--3---3-4-5--5-|
E|-0----4--------------3--3---3--3----------------------------|

G|-----------|
D|-----------|
A|-5--5-5--5-|
E|-----------|

Chorus:
G|-----------------------------------------------------------------|
D|-----------------------------------------------------------------|
A|--------3---3--3-2-0---0--0-2-3---3--2-0--------3---3--3-4-5---5-|
E|-3---3-----------------------------------3---3-------------------|

G|----------------------------------------------5-2----------|
D|-------------------------------------------------5-2-------|
A|-5--5-5--5---------3---3--3-2-0---0--0-2-3--3--------------|
E|------------3---3------------------------------------3---3-|

G|------------------------------------------------------------------|
D|------------------------------------------------------------------|
A|-3---3--3-4-5---5--5--5-5--5-------3--3--3-2-0---0--0-2-3---3-2-0-|
E|------------------------------3--3--------------------------------|

Verse 2:
G|-----------------------------------------------------------------|
D|-----------------------------------------------------------------|
A|--------3---3--3-2-0---0--0-2-3---3--2-0--------3---3--3-4-5---5-|
E|-3---3-----------------------------------3---3-------------------|

        (Play Verse 2 x2)
G|-----------|
D|-----------|
A|-5--5-5--5-|
E|-----------|

Chorus 2:
G|-----------------------------------------------------------------|
D|-----------------------------------------------------------------|
A|--------3---3--3-2-0---0--0-2-3---3--2-0--------3---3--3-4-5---5-|
E|-3---3-----------------------------------3---3-------------------|

G|----------------------------------------------5-2---------------|
D|-------------------------------------------------5-2------------|
A|-5--5-5--5---------3---3--3-2-0---0--0-2-3--3--------------3---3|
E|------------3---3------------------------------------3---3------|

G|----------------------------------------------------------------|
D|----------------------------------------------------------------|
A|-3-4-5---5--5--5-5--5-------3--3--3-2-0---0--0-2-3---3-2-0------|
E|-----------------------3--3--------------------------------3---3|

G|-------------------------------|
D|-------------------------------|
A|-3--3--3-2-0---0--0-2-3--3-2-0-|
E|-------------------------------|

Solo:
G|------------------------------------------------------5-6-7--7-|
D|---------------------------------------------------------------|
A|--------3---3--3-2-0---0--0-2-3---3--2-0--------3---3----------|
E|-3---3-----------------------------------3---3-----------------|

G|--------------|
D|--------------|
A|-5--5--5---5--|
E|----------5-5-|

Bridge:
  ‘.’
G|------------------------------------------------------------|
D|------------------------------------------------------------|
A|--------2--3--3--2-0-------------0-1-2--2---3--3---3-4-5--5-|
E|-0----4--------------3--3---3--3----------------------------|

             (Break)
G|--------------|
D|--------------|
A|-5--5-5--5----|
E|------------3-|

Verse 2: (No Bass Until The D)
G|-----------------------------------------------------------|
D|-----------------------------------------------------------|
A|-----------------------------5-5-5-5-5-5-5-5--5--5--5---5--|
E|-------------------------------------------------------5-5-|

Chorus 3:
G|-----------------------------------------------------------------|
D|-----------------------------------------------------------------|
A|--------3---3--3-2-0---0--0-2-3---3--2-0--------3---3--3-4-5---5-|
E|-3---3-----------------------------------3---3-------------------|

G|--------------------------------------------5-2---------------|
D|-----------------------------------------------5-2------------|
A|-5--5-5--5--------3--3--3-2-0---0--0-2-3--3--------------3--3-|
E|-----------3---3-----------------------------------3---3------|

G|--------------------------------------------|
D|--------------------------------------------|
A|-3-4-5--5---5--5-5--5---------3-----0-----3-|
E|------------------------3-------------------|

Outro:
G|--------------------------------------|
D|--------------------------------------|
A|--------3--3--3-2-0---0--0-2-3--3-2-0-|
E|-3---3--------------------------------|

G|--------------------------------------------|
D|---------------------------------------5----|
A|--------3--3--3-2-0---0--0-2-3--3---5/7-7-5-|
E|-3---3--------------------------------------|

G|--------------------------------------------|
D|----------0--2--4----------2----------------|
A|--------3----------0--2--4----5--3--2-------|
E|-3---3--------------------------------5---3-|

‘.’ Denotes Pause 


I spent 20 years trying to get out of this place
I was looking for something I couldn't replace
I was running away from the only thing I've ever known
Like a blind dog without a bone
I was a gypsy lost in the twilight zone
I hijacked a rainbow and crashed into a pot of gold
I been there, done thatand I ain't lookin' back on the seeds I've sown,
Saving dimes, spending too much time on the telephone
Who says you can't go home

[Chorus:]
Who says you can't go home
There's only one place they call me one of their own
Just a hometown boy, born a rolling stone, who says you can't go home
Who says you can't go back, been all around the world and as a matter of fact
There's only one place left I want to go, who says you can't go home
It's alright, it's alright, it's alright, it's alright, it's alright

I went as far as I could, I tried to find a new face
There isn't one of these lines that I would erase
I lived a million miles of memories on that road
With every step I take I know that I'm not alone
You take the home from the boy, but not the boy from his home
These are my streets, the only life I've ever known,
Who says you can't go home

[Chorus:]

I been there, done thatand I ain't looking that
It's been a long long road
Feels like I never left, that's how the story goes

It doesn't matter where you are, it doesn't matter where you go
If it's a million miles aways or just a mile up the road
Take it in, take it with you when you go,
Who says you can't go home

[Chorus:]

It's alright, it's alright, it's alright, it's alright, it's alright
Who says you can't go home [x2]

            
            
Suggest correction
Creating personal tab
Creating personal tab
You can edit any tab online and save it as your Personal.

You can edit, replace or remove any tab part or add personal notes – all changes will be seen only by you.

Personal tabs can be accessed anytime from any device, even offline.
Learn more »
Give kudos to tab author, rate the tab!
1 2 3 4 5
comments
print report bad tab
guest
You may want to rate the tab now too:
select rating
Wanna post a correction for this tab? Suggest correction