Oops, an error
Loading. Please wait.

Who Says You Cant Go Home tab

version 2
version 2

Whole song

Interactive

11,639 views 9 this week
5 commentsread comments
1 2 3 4 5
1 last vote to show rating
add to favorites
×
Save as Personal and add changes to this tab that will be seen only by you. Learn more ›
×
You can save this tab as Personal to edit and correct it or add notes. All changes will be seen only by you. Learn more »
launch autoscroll
font size
0
reset
how to read this tab
guitar tuner
backing track
0:00
0:00
edit
Autoscroll
slow
fast
+/-
esc
set tempo
stop
Difficulty
intermediate
Bon Jovi - Who Says You Can't Go Home
Album: Have a Nice Day
Year: 2005

Chords: G9:320033
     Cadd9:x32033
    A7sus4:x02033
         D:xx0232

Intro Chords:G9 Cadd9

Main Intro:
E----------3-----3---------------------------|
B--------3----------3h5---3--------3---------|
G---4h5-----------------------5--------------|   (x2)
D--------------------------------------------|
A--------------------------------------------|
E--------------------------------------------|

Verse#1:
        G9                    Cadd9
I spent 20 years trying to get out of this place


      A7sus4                  Cadd9
I was lookin' for something I couldn't replace

      G9                    Cadd9           D
I was runnin' away from the only thing I've ever known
           G9            Cadd9
And like a blind dog without a bone
        A7sus4             Cadd9
I was a gypsyu lost in the twilight zone


  G9                     Cadd9          D
I hijacked a rainbow and crashed into a pot of gold
 Em                   Cadd9                 G9
I've been there, done that, I ain't lookin' that
                            Em              Cadd9
The seeds I've sown, saving dimes, spending too much time on the
D                                  G9
telephone... Who says you can't go home...

Chorus:
G9           Cadd9
Who says you can't go home

        A7sus4                      Cadd9
There's only one place that call me one of their own

       G9            Cadd9          D                            G9
Just a hometown boy, born a rolling-stone, who says you can't go home
             Cadd9               A7sus4
Who says you can't go back, been around all around the world and
         Cadd9
that's a matter of fact
        G9             Cadd9          D                         G9
There's only one place left I want to go, who says you can't go home

                         Cadd9                       A7sus4
It's alright, it's alright, it's alright, it's alright...
                          Cadd9
It's alright,it's alright,it's alright,it's alright


          G9                         Cadd9
I went as far as I could, I tried to find a new face

            A7sus4                  Cadd9
There isn't one of these lines that I would erase

         G9              Cadd9            D
I left a million mile of memories on that road

          G9                      Cadd9
And every step I take I know that I'm not alone

             A7sus4                         Cadd9
You take the home from the boy, but not the boy from his home


G9                        Cadd9          D
These are my streets, the only life I've ever known, who says you

         G9
can't go home

G9           Cadd9
Who says you can't go home

        A7sus4                      Cadd9
There's only one place that call me one of their own

       G9            Cadd9          D                            G9
Just a hometown boy, born a rolling-stone, who says you can't go home
             Cadd9               A7sus4
Who says you can't go back, been around all around the world and
         Cadd9
that's a matter of fact
        G9             Cadd9          D                         G9
There's only one place left I want to go, who says you can't go home

                         C         Am                 C
It's alright, it's alright, it's alright, it's alright...


Guitar Solo Chords:

G C Am C G C Am C

Guitar Solo:


E|---------------------|--------------------------|
B|--12/13-13-13-13--12-/-13-12--------------------|
G|--12/12-12-12-12--12-/-12-12-----14-16---14--12-|
D|--12/14-14-14-14--12-/-12-12-----12-12---12--12-|
A|---------------------|--------------------------|
E|---------------------|--------------------------|

 |----------------------|----------------------------|
 |-12/13-13-13-13----12-/13---12-----------12--------|
 |-12/12-12-12-12----12-/12---12-------14------14-12-|
 |-12/14-14-14-14----12-/12---12-------12------12-12-|
 |----------------------|----------------------------|
 |----------------------|----------------------------|

 |----------------------------|--------------------------------|
 |--12--12--10--10--8--8--13--|-13--12--12--10--10--12--10--8--|
 |---0---0---0---0--0--0---0--|--0---0---0---0---0---0---0--0--|
 |----------------------------|--------------------------------|
 |----------------------------|--------------------------------|
 |----------------------------|--------------------------------|


     G9               Cadd9                 G9
I've been there, done that, I ain't looking that
     G9
It's been a long long road
Em                    Cadd9                      D
Feels like I've never left, that's how the story goes
           G9                            Cadd9
It doesn't matter where you are, doesn't matter where you go
          A7sus4                        Cadd9
If it's a million miles aways or just a mile up the road
        G9          Cadd9             D                         G9
Take it in, take it with you when you go, who says you can't go home

G9           Cadd9
Who says you can't go home

        A7sus4                      Cadd9
There's only one place that call me one of their own

       G9            Cadd9          D                            G9
Just a hometown boy, born a rolling-stone, who says you can't go home
             Cadd9               A7sus4
Who says you can't go back, been around all around the world and
         Cadd9
that's a matter of fact
        G9             Cadd9          D                         G9
There's only one place left I want to go, who says you can't go home

                         Cadd9                       A7sus4                  It's 
it's alright, it's alright, it's alright...

(Same as lead Chorus)

            
            
Suggest correction
Creating personal tab
Creating personal tab
You can edit any tab online and save it as your Personal.

You can edit, replace or remove any tab part or add personal notes – all changes will be seen only by you.

Personal tabs can be accessed anytime from any device, even offline.
Learn more »
Give kudos to tab author, rate the tab!
1 2 3 4 5
comments
print report bad tab
5 comments total. Showing first comments.
0 reply
steveclark1212 57 Aug 07, 2006 11:00 AM

hey bud 100% cept for this.. the second time on the intro goes like this

Main Intro:
E----------3-----3---------------------------|
B--------3----------3h5---3-----------------|
G---4h5-----------------------5p4-------------| (x2)
D--------------------------------------------|
A--------------------------------------------|
E--------------------------------------------|

0 reply
steveclark1212 57 Aug 07, 2006 11:01 AM

and also missing small part on end of solo

0 reply
Endarkened2012 10 Nov 25, 2009 07:10 PM

add the strumming pattern

guest
Wanna post a correction for this tab? Suggest correction