Oops, an error
Loading. Please wait.

Wild In The Streets tab

version 1
version 1

Whole song

Interactive

2,685 views 1 this week
2 commentsread comments
1 2 3 4 5
x 6
add to favorites
×
Save as Personal and add changes to this tab that will be seen only by you. Learn more ›
×
You can save this tab as Personal to edit and correct it or add notes. All changes will be seen only by you. Learn more »
launch autoscroll
font size
0
reset
how to read this tab
guitar tuner
edit
Autoscroll
slow
fast
+/-
esc
set tempo
stop
Wild in the streets guitar tab

I couldn’t find a tab for this awesome song anywhere, so I tabbed it out myself. Its 
easy, I’m only 14.
Tabber:Dave
Intro:e-------------------------------------------|  x2 but let the
      B----------------------3-3-3----------------|  B5
      G2-2-2-2222-2-2-2-2222-2-2-2-2222-4-4-4-----|  chord ring
      D2-2-2-2222-2-2-2-2222-------2222-4-4-4-----|
      A0-0-0-0000-0-0-0-0000-------0000-2-2-2-----|
      E----------------------------------------12-|
             Pm-        pm-        pm-

Verse:e--------0-----------0-----------0-----------0-] Listen to the
      B----------------------------------------------] verse for
      G—-0----0------0----0------1----1------0----0--] timing.
      D-2----2------2----2------2----2------2----2---]
      A3----3----------------------------------------]
      E------------2----2------2----2------2----2----]
w/bar     ~     ~     ~      ~     ~     ~     ~    ~

Pre-
Chorus:e--------------------------------------------| E5 chord is
       B----3-------3-3-------3---------------------| played when the
       G2---2-----2-2-2---2---2-----9999-9-9-999----| drums are played
       D2---------2-------2---------9999-9-9-999----|
       A----------------------------7777-7-7-777----|
       E--------------------------------------------|
        Oh yeah...        Oh yeah...

Chorus=intro (first chorus=1/2intro, second chorus=full intro)

Solo: I don’t think that this is 100% correct but it sounds good.

e---------------------------------------------------------------|
B---------------------------------------------------------------|
G—12—14-14-12-14-14-12-14-14-------------12-14-14-12-14-14-12---|
D-12-14-14-12-14-14-12-14-14-16----14-16-12-14-14-12-14-14-12---|
A-------------------------------16------------------------------|
E---------------------------------------------------------------|

e-----------------------------17-16-14----------17-16-14-|
B--------------------14-15-14----------14-15-14----------|
G-14-14--------------------------------------------------|
D-14-14-16----14-16--------------------------------------|
A----------16--------------------------------------------|
E--------------------------------------------------------|

e-17-16-14-17-16-14----------------------------------------|
B-------------------14-15-14-14-15-14----------------------|
G-------------------------------------12-14-14-12-14-14-12-|
D-------------------------------------12-14-14-12-14-14-12-|
A----------------------------------------------------------|
E----------------------------------------------------------|

e------------------------------------------------------------|
B------------------------------------------------------------|
G-14-14-------------12-14-14-12-14-14-12-14-14---------------|
D-14-14-16----14-16-12-14-14-12-14-14-12-14-14-16----14-16---|
A----------16-------------------------------------16---------|
E------------------------------------------------------------|

e-----------------------------------------17-17-14----14---------14----|
B--------------------------------------------------17----17-14------17-|
G12-14-14-12-14-14-12-14-14---------14-16----------------------16------|
D12-14-14-12-14-14-12-14-14-16-14-16-----------------------------------|
A----------------------------------------------------------------------|
E----------------------------------------------------------------------|

e14--------------------------------------------|
B---17-14--------------------------------------|
G---------16-14----14-14--14-14-14-14-14-14----|
D---------------16--------14-14-14-14-14-14----|
A----------------------------------------------|
E----------------------------------------------|

                              Bridge
e------------------------------------------------------|
B-------------------------------------------------3----|
G2-----------------------2------------------------2----|
D2--------------4--------2--------------------4---0----|
A0--------------4-----/--0--------------------4--------|
E---------------2-----/-----------------------2--------|
   w/b w/b w/b               w/b w/b w/b w/b

Then play the chorus
Play this 8 times then keep playing a5 chord
e---------------------------------------------|      e
B---------------------------------------------|      B
G12-14-14-12-14-14-12-14-14-------------------|      G2
D12-14-14-12-14-14-12-14-14-16----14-16-------|      D2
A------------------------------16-------------|      A0
E---------------------------------------------|      E

            
            
Suggest correction
Creating personal tab
Creating personal tab
You can edit any tab online and save it as your Personal.

You can edit, replace or remove any tab part or add personal notes – all changes will be seen only by you.

Personal tabs can be accessed anytime from any device, even offline.
Learn more »
comments
print report bad tab
2 comments total.
0 reply
sambora_is_best 10 Aug 03, 2010 07:04 AM

THIS IS TABBER:
the solo is this:

E|----------------------------------------
B|12-14-14-12-14-14-12-14-14--------------
G|12-14-14-12-14-14-12-14-14-------------- X2
D|---------------------------16----14--16-
A|------------------------------16--------
E|----------------------------------------

E|------------------------------17-14-------------------
B|------15-14-------17-15-------------------17-14-------
G|14-14-------14-14-------14-14-------14-14-------14-14-
D|------------------------------------------------------
A|------------------------------------------------------
E|------------------------------------------------------

E|------------------------------------------------------
B|15-14-------17-14-------15-14-------12-14-14-12-14-14-
G|------14-14-------14-14-------16-14-12-14-14-12-14-14-
D|------------------------------------------------------
A|------------------------------------------------------
E|------------------------------------------------------

E|---------------------------------------------------------
B|12-14-14------------12-14-14-12-14-14-12-14-14-----------
G|12-14-14------------12-14-14-12-14-14-12-14-14-----------
D|---------16---14-16----------------------------16---14-16
A|-----------16------------------------------------16------
E|---------------------------------------------------------

E|---------------------------------------------------------
B|12-14-14-12-14-14-12-14-14-------------------------------
G|12-14-14-12-14-14-12-14-14----------14-16----------------
D|---------------------------16-14-16----------------------
A|---------------------------------------------------------
E|---------------------------------------------------------

E|17-17-14----14-----------14-----------------------------
B|---------17----17-14--------17-14---------14-14-14-14-14
G|---------------------16-----------16-14---14-14-14-14-14
D|----------------------------------------16--------------
A|--------------------------------------------------------
E|--------------------------------------------------------

E|

0 reply
sambora_is_best 10 Aug 04, 2010 06:38 AM

this is the best tab that i have ever seen in my whole life, please continue to add tabs as Bon Jovi are the best band ever!!

guest
Wanna post a correction for this tab? Suggest correction