Oops, an error
Loading. Please wait.
We have an official You Give Love A Bad Name tab made by UG professional guitarists. Check out the tab »
×
98,128 views 93 this week
5 commentsread comments
1 2 3 4 5
x 38
add to favorites
×
Save as Personal and add changes to this tab that will be seen only by you. Learn more ›
×
You can save this tab as Personal to edit and correct it or add notes. All changes will be seen only by you. Learn more »
launch autoscroll
font size
0
reset
guitar tuner
backing track
0:00
0:00
edit
Autoscroll
slow
fast
+/-
esc
set tempo
stop
Author
Difficulty
Unregistered
intermediate
Bon Jovi - "You Give Love A Bad Name" - Bass Tab

common time(4/4)
standard tuning(EADG)

Original contributor: Unregistered
New Contributor: Teh D Bot
Original Tab at bottom

Intro
G|-----------------------------------------------------------------|
D|-----------------------------------------------------------------|
A|-------------------------------------------------------------6-\-|
E|-----------------------------------------------------------------|
   1 + 2 + 3 + 4 + 1 + 2 + 3 + 4 + 1 + 2 + 3 + 4 + 1 + 2 + 3 + 4 +

G|-----------------------------------------------------------------|
D|-------------------------------------------------1---------------|
A|-3-----------1-3-1---1---3-------------1-------1-----3-------1-2-|
E|-------4-------------------------4-----------3-------------3-----|
   1 + 2 + 3 + 4 + 1 + 2 + 3 + 4 + 1 + 2 + 3 + 4 + 1 + 2 + 3 + 4 +

G|-----------------------------------------------------------------|
D|-----------------------------------------------------------------|
A|-3-----------1-3-1---1---3-------------1-------------------------|
E|-------4-------------------------4-------------------------------|
   1 + 2 + 3 + 4 + 1 + 2 + 3 + 4 + 1 + 2 + 3 + 4 + 1 + 2 + 3 + 4 +

0:23
G|-----------------------------------------------------------------|
D|---------1-1-------------1-1-------------1-1-------------1-1-----|
A|-3---1-3-----3-1-3---1-3-----3---3---1-3-----3-1-3---1-3-----3---|
E|---3---------------3---------------3---------------3-------------|
   1 + 2 + 3 + 4 + 1 + 2 + 3 + 4 + 1 + 2 + 3 + 4 + 1 + 2 + 3 + 4 +

Verse 0:31
G|-------------------------------------------------------------------|
D|o---------1-1-------------1-1-------------1-1-------------1-1-----o|
A|o-3---1-3-----3-1-3---1-3-----3---3---1-3-----3-1-3---1-3-----3---o|
E|----3---------------3---------------3---------------3--------------|
    1 + 2 + 3 + 4 + 1 + 2 + 3 + 4 + 1 + 2 + 3 + 4 + 1 + 2 + 3 + 4 +

Pre Chorus
G|---------------------------------------------------------8-8-----|
D|-----------------------------------------1-1-----10--8-10----10\-|
A|-------------------------1---2---3---1-3-----3-1---10------------|
E|-1-1-1-1-1-1-1-1-1-1-1-1-----------3-----------------------------|
   1 + 2 + 3 + 4 + 1 + 2 + 3 + 4 + 1 + 2 + 3 + 4 + 1 + 2 + 3 + 4 +

G|-----------------------------------------------------------------|
D|-----------------------------------------------------------------|
A|-1-1-1-1-1-1-1-1-1-1-1-1-1-3-1-----------------------------------|
E|-------------------------------3-1-1-1-1-1-1-1-1-3-3-3-3-3-3-3-3-|
   1 + 2 + 3 + 4 + 1 + 2 + 3 + 4 + 1 + 2 + 3 + 4 + 1 + 2 + 3 + 4 +

Chorus1:02
G|---------------------------------------------------------3-4-5-5-|
D|-------------------------------------------------1---------------|
A|-3-----------1-3-1---1---3-------------1-------1-----3-----------|
E|-------4-------------------------4-----------3-------------------|
   1 + 2 + 3 + 4 + 1 + 2 + 3 + 4 + 1 + 2 + 3 + 4 + 1 + 2 + 3 + 4 +

G|-----------------------------------------------------------------|
D|-------------------------------------------------1---------------|
A|-3-----------1-3-1---1---3---3-1-------1-------1-----3-------1---|
E|-------4-------------------------4-----------3-------------------|
   1 + 2 + 3 + 4 + 1 + 2 + 3 + 4 + 1 + 2 + 3 + 4 + 1 + 2 + 3 + 4 +

G|-----------------------------------------|
D|-----------------------------------------|
A|-------1---------------------------------|
E|-4---------------------------------------|
   1 + 2 + 3 + 4 + 1 + 2 + 3 + 4 + 1 + 2 + 

Interlude 1:23
G|-----------------------------------------------------------------|
D|---------1-1-------------1-1-------------1-1-------------1-1-----|
A|-3---1-3-----3-1-3---1-3-----3---3---1-3-----3-1-3---1-3-----3---|
E|---3---------------3---------------3---------------3-------------|
   1 + 2 + 3 + 4 + 1 + 2 + 3 + 4 + 1 + 2 + 3 + 4 + 1 + 2 + 3 + 4 +

Verse 1:30
G|-------------------------------------------------------------------|
D|o---------1-1-------------1-1-------------1-1-------------1-1-----o|
A|o-3---1-3-----3-1-3---1-3-----3---3---1-3-----3-1-3---1-3-----3---o|
E|----3---------------3---------------3---------------3--------------|
    1 + 2 + 3 + 4 + 1 + 2 + 3 + 4 + 1 + 2 + 3 + 4 + 1 + 2 + 3 + 4 +

Pre Chorus 1:46
G|---------------------------------------------------------8-8-----|
D|-----------------------------------------1-1-----10--8-10----10\-|
A|-------------------------1---2---3---1-3-----3-1---10------------|
E|-1-1-1-1-1-1-1-1-1-1-1-1-----------3-----------------------------|
   1 + 2 + 3 + 4 + 1 + 2 + 3 + 4 + 1 + 2 + 3 + 4 + 1 + 2 + 3 + 4 +

G|-----------------------------------------------------------------|
D|-----------------------------------------------------------------|
A|-1-1-1-1-1-1-1-1-1-1-1-1-1-3-1-----------------------------------|
E|-------------------------------3-1-1-1-1-1-1-1-1-3-3-3-3-3-3-3-3-|
   1 + 2 + 3 + 4 + 1 + 2 + 3 + 4 + 1 + 2 + 3 + 4 + 1 + 2 + 3 + 4 +

Chorus 2:01
G|---------------------------------------------------------3-4-5-5-|
D|-------------------------------------------------1---------------|
A|-3-----------1-3-1---1---3-------------1-------1-----3-----------|
E|-------4-------------------------4-----------3-------------------|
   1 + 2 + 3 + 4 + 1 + 2 + 3 + 4 + 1 + 2 + 3 + 4 + 1 + 2 + 3 + 4 +

G|-----------------------------------------------------------------|
D|-------------------------------------------------1---------------|
A|-3-----------1-3-1---1---3---3-1-------1-------1-----3-----3-1---|
E|-------4-------------------------4-----------3-------------------|
   1 + 2 + 3 + 4 + 1 + 2 + 3 + 4 + 1 + 2 + 3 + 4 + 1 + 2 + 3 + 4 +

G|---------------------------------|
D|---------------------------------|
A|-------1-----------------6-\-----|
E|-4-------------------------------|
   1 + 2 + 3 + 4 + 1 + 2 + 3 + 4 +

Solo 2:21
G|-----------------------------------------------------------------|
D|-----------------------------------------------------------------|
A|-3-----------1-3-1---1---3-----1-3-----------1-3-1-3/6---3-----1-|
E|-------4---------------------3---------4---------------------4---|
   1 + 2 + 3 + 4 + 1 + 2 + 3 + 4 + 1 + 2 + 3 + 4 + 1 + 2 + 3 + 4 +

G|---------------------------------------------------------------------------------|
D|---------------------------------------------------------------------------------|
A|-3-----------1-3-1---1---3-------3-----------------------------------------------|
E|-------4---------------------4-4-------4---------3-3-3-3-3-3-3-3-3-3-3-3-3-3-3-3-|
   1 + 2 + 3 + 4 + 1 + 2 + 3 + 4 + 1 + 2 + 3 + 4 + 1 + 2 + 3 + 4 +

Rest

Chorus 2:52
G|-----------------------------------------------|
D|-10-10-10-10-------10-10-10-10-------10-10-----|
A|-----------------------------------------------|
E|-------------8-----------------8-----------8-\-|
   1  e  +  a  2  e  +  a  3  e  +  a  4  e  +  a 

2:54
G|---------------------------------------------------------3-4-5-5-|
D|-------------------------------------------------1---------------|
A|-3-----------1-3-1---1---3---3-1-------1-------1-----3-----------|
E|-------4-------------------------4-----------3-------------------|
   1 + 2 + 3 + 4 + 1 + 2 + 3 + 4 + 1 + 2 + 3 + 4 + 1 + 2 + 3 + 4 +

G|-----------------------------------------------------------------|
D|-------------------------------------------------1---------------|
A|-3-----------1-3-1---1---3---3-1-------1-------1-----3-----3-1---|
E|-------4-------------------------4-----------3-------------------|
   1 + 2 + 3 + 4 + 1 + 2 + 3 + 4 + 1 + 2 + 3 + 4 + 1 + 2 + 3 + 4 +

Outro 3:10
G|-------------------------------------------------------------------|
D|o-----------------1-1-----------------------------1-1-------------o|
A|o-------1-1-1---1-----3-3-3-3-1-1-------1-1-1---1-----3-3-3-3-1-1-o|
E|--4-4-4-------4-------------------4-4-4-------4--------------------|
    1 + 2 + 3 + 4 + 1 + 2 + 3 + 4 + 1 + 2 + 3 + 4 + 1 + 2 + 3 + 4 +
Tabbed by Dave Vucko

=======================================================================

Intro:

|-------------|---------|-------------|-------------|
|-------------|---------|-------------|-1-----------|
|-3-r-----1-3-|-1-1-3---|-----1-----1-|---3-----1-2-|
|-----4-------|---------|-4-r-----3---|-------3-----|
  1 2 & 3 4 &   1 2 3 4   1 2 & 3 4 &   1 2 3 & 4 &

|-------------|---------|-----------|---------|
|-------------|---------|-----------|---------|
|-3-r-----1-3-|-1-1-3---|-----1-----|---------|
|-----4-------|---------|-4-r-------|---------|
  1 2 & 3 4 &   1 2 3 4   1 2 & 3 4   1 2 3 4 

Verse:

|------------------|----------------|
|*---------1-1-----|---------1-1---*|
|*-3---1-3-----3-1-|-3---1-3-----3-*|
|----3-------------|---3------------|
   1 & 2 & 3 & 4 &   1 & 2 & 3 & 4

|-----------------|-------------|-----------------|
|-----------------|-------------|---------1-1-----|
|-----------------|---------1-2-|-3---1-3-----3-1-|
|-1-1-1-1-1-1-1-1-|-1-1-1-1-----|---3-------------|
  1 & 2 & 3 & 4 &   1 & 2 & 3 4   1 & 2 & 3 & 4 &

|------------8-8-----|-----------------|-----------------|
|-10----8-10-----10/-|-----------------|-----------------|
|----10--------------|-1-1-1-1-1-1-1-1-|-1-1-1-1-1-3-----|
|--------------------|-----------------|-------------3-1-|
  1  &  2 &  3 & 4     1 & 2 & 3 & 4 &   1 & 2 & 3 & 4 &

|-----------------|-----------------|
|-----------------|-----------------|
|-----------------|-----------------|
|-1-1-1-1-1-1-1-1-|-3-3-3-3-3-3-3-3-|
  1 & 2 & 3 & 4 &   1 & 2 & 3 & 4 &

1st Chorus:

|-------------|---------|-------------|-----3-3-5-5-|
|-------------|---------|-------------|-1-----------|
|-3-r-----1-3-|-1-1-3---|-----1-----1-|---3---------|
|-----4-------|---------|-4-r-----3---|-------------|
  1 2 & 3 4 &   1 2 3 4   1 2 & 3 4 &   1 2 3 & 4 &

|-------------|-----------|-------------|-------------|
|-------------|-----------|-------------|-1-----------|
|-3-r-----1-3-|-1-1-3-3-1-|-----1-----1-|---3---3-1-1-|
|-----4-------|-----------|-4-r-----3---|-------------|
  1 2 & 3 4 &   1 2 3 4 &   1 2 & 3 4 &   1 2 3 & 4 &

|-----------|---------|-----|
|-----------|---------|-----|
|-----1-----|---------|-----|
|-4-r-------|---------|-----|
  1 2 & 3 4   1 2 3 4   1 2

2nd Chorus:

|-------------|---------|-------------|-----3-3-5-5-|
|-------------|---------|-------------|-1-----------|
|-3-r-----1-3-|-1-1-3---|-----1-----1-|---3---------|
|-----4-------|---------|-4-r-----3---|-------------|
  1 2 & 3 4 &   1 2 3 4   1 2 & 3 4 &   1 2 3 & 4 &

|-------------|-----------|-------------|-------------|
|-------------|-----------|-------------|-1-----------|
|-3-r-----1-3-|-1-1-3-3-1-|-----1-----1-|---3---3-1-1-|
|-----4-------|-----------|-4-r-----3---|-------------|
  1 2 & 3 4 &   1 2 3 4 &   1 2 & 3 4 &   1 2 3 & 4 &

|-----------|---------|
|-----------|---------|
|-----1-----|---------|
|-4-r-------|---------|
  1 2 & 3 4   1 2 3 4

Solo:

|-------------|---------|-------------|-----3-3-5-5-|
|-------------|---------|-------------|-1-----------|
|-3-r-----1-3-|-1-1-3---|-----1-----1-|---3---------|
|-----4-------|---------|-4-r-----3---|-------------|
  1 2 & 3 4 &   1 2 3 4   1 2 & 3 4 &   1 2 3 & 4 &

|-------------|-----------|-----------|-----------------|
|-------------|-----------|-----------|-----------------|
|-3-r-----1-3-|-1-1-3-3-1-|-----1-----|-----------------|
|-----4-------|-----------|-4-r-------|-3-3-3-3-3-3-3-3-|
  1 2 & 3 4 &   1 2 3 4 &   1 2 & 3 4   1 & 2 & 3 & 4 &

                                  
|-----------------|-----------|-5-5-5-5-5-5-5-5-5-5-5-|
|-----------------|*---------*|-----------------------|
|-----------------|*-r-r-r-r-*|-----------------------|
|-3-3-3-3-3-3-3-3-|-----------|-----------------------|
  1 & 2 & 3 & 4 &    1 2 3 4    1 & a 2 & 3 e & a 4 &

End:

|-------------|---------|-------------|-----3-3-5-5-|
|-------------|---------|-------------|-1-----------|
|-3-r-----1-3-|-1-1-3---|-----1-----1-|---3---------|
|-----4-------|---------|-4-r-----3---|-------------|
  1 2 & 3 4 &   1 2 3 4   1 2 & 3 4 &   1 2 3 & 4 &

|-------------|-----------|-------------|-------------|
|-------------|-----------|-------------|-1-----------| (fade-out)
|-3-r-----1-3-|-1-1-3-3-1-|-----1-----1-|---3-----1-2-|
|-----4-------|-----------|-4-r-----3---|-------3-----|
  1 2 & 3 4 &   1 2 3 4 &   1 2 & 3 4 &   1 2 3 & 4 &

By: Johari Taylor
E-mail: viking@powerup.com.au  



            
            
Suggest correction
Creating personal tab
Creating personal tab
You can edit any tab online and save it as your Personal.

You can edit, replace or remove any tab part or add personal notes – all changes will be seen only by you.

Personal tabs can be accessed anytime from any device, even offline.
Learn more »
comments
print report bad tab
5 comments total. Showing first comments.
0 reply
saturns_bassman 789 Mar 24, 2005 07:00 PM

this tab sounds goos a half-step down and a fret hight but u did nice work with it

0 reply
BassistGuy 111 Jan 21, 2006 04:31 PM

Seems pretty perfect to me. 5/5

0 reply
FlameGame 203 Aug 20, 2009 07:43 AM

its perfect and out from the 5star version of the guitarPro....5/5

guest
Wanna post a correction for this tab? Suggest correction