Oops, an error
Loading. Please wait.
We have an official You Give Love A Bad Name tab made by UG professional guitarists. Check out the tab »
×
13,850 views 12 this week
1 commentread comment
1 2 3 4 5
x 3
add to favorites
×
Save as Personal and add changes to this tab that will be seen only by you. Learn more ›
×
You can save this tab as Personal to edit and correct it or add notes. All changes will be seen only by you. Learn more »
launch autoscroll
font size
0
reset
how to read this tab
guitar tuner
backing track
0:00
0:00
edit
Autoscroll
slow
fast
+/-
esc
set tempo
stop
Author
Difficulty
YOU GIVE LOVE A BAD NAME
                             As recorded by Bon Jovi
                        (From the 1994 Album CROSSROADS)

Words and Music by Jon Bon Jovi, R.Sambora and Desmond Child
Transcribed by Jett18
          Bb5                  C5                   G#5              C5(type 2)
      6 8 x x x x          x 3 5 x x x          4 6 x x x x         8 10 x x x x

          C#5                  G5
      x 4 6 x x x          3 5 5 x x x

 Intro
  N.C.                            C5     Ab5       C5
 4/4
  Gtr I
|---------|---------------|---------------------------|
|---------|---------------|---------------------------|
|---------|---------------|---------------------------|
|---------|---------------|---------5-----------------|
|---------|------x-x------|---------3-----6--(6)---10-|
|---------|------x-x-15\--|---------------4--(4)----8-|
|
| Gtr II
|                                         ~~~~~~~
|---------|---------------|---------------------------|
|---------|---------------|---------------------------|
|---------|---------------|-10b12-(10)---10-(10)----8-|
|---------|---------------|---------------------------|
|---------|---------------|---------------------------|
|---------|---------------|---------------------------|


         Bb5          C5
|-------------------------------|
|-------------------------------|
|-------------------------------|
|-------------------------------|
|----------8-------8--10--------|
|----------6-------6---8--------|
|
|-------------------------------|
|-------------------------------|
|-10b12==(10)r(10)-8------------|
|---------------------10--8-10--|
|-------------------------------|
|-------------------------------|


        Ab5    Bb5                  Eb5         C5
        Gtr I
|--------------------------|--------------------------------|
|--------------------------|--------------------------------|
|--------------------------|--------------------------------|
|--------------------------|----------8----------5---(5)----|
|---------6-----8--(8)-----|----------6----------3---(3)----|
|---------4-----6--(6)-----|--------------------------------|
|
|               ~~~~~~~                          ~~~~~~~~
|--------------------------|--------------------------------|
|--------------------------|--------------------------------|
|-10b12-(10)---10-(10)---8-|-10b12==(10)r(10)-8-------------|
|--------------------------|--------------------10--(10)----|
|--------------------------|--------------------------------|
|--------------------------|--------------------------------|


               Ab5       C5   Bb5                    C5
|---------------------------|------------------------------------|
|---------------------------|------------------------------------|
|---------------------------|------------------------------------|
|---------5-----------------|------------------------------------|
|---------3-----6--(6)---10-|--8------------8--------10----------|
|---------------4--(4)----8-|--6------------6---------8----------|
|
|               ~~~~~~~
|---------------------------|------------------------------------|
|---------------------------|------------------------------------|
|-10b12-(10)---10-(10)----8-|-10b12==(10)r(10)-8b8.5-------------|
|---------------------------|---------------------------10--8-10-|
|---------------------------|------------------------------------|
|---------------------------|------------------------------------|


        Ab5    Bb5                          N.C.
                                            PM--------------------------| ~
|-------------------------|-------------||------------------|----------------|
|-------------------------|-------------||o-----------------|----------------|
|-------------------------|-------------||------------------|----------------|
|-------------------------|-------------||----------1-1-----|---------1-1----|
|---------6-----8--(8)----|--(8)--------||o-3---1-3-----3-1-|-3---1-3-----3--|
|---------4-----6--(6)----|--(6)--------||----3-------------|---3------------|
|
|               ~~~~~~~~~~~~~~~~~
|-------------------------|-------------||------------------|----------------|
|-------------------------|-------------||o-----------------|----------------|
|-10b12-(10)---10-(10)----|-(10)--------||------------------|----------------|
|-------------------------|-------------||------------------|----------------|
|-------------------------|-------------||o-----------------|----------------|
|-------------------------|-------------||------------------|----------------|


                    Eb5
                       \0.5/  \0.5/         \0.5/
  PM------------|
|-----------------|----------------------------------||
|-----------------|-4-(4)----(4)-----------(4)\------||
|-----------------|-3-(3)----(3)-----------(3)\------||
|---------1-1-----|-1-(1)----(1)-----------(1)\------||
|-3---1-3-----3-1-|----------------------------------||
|---3-------------|----------------------------------||
|
| Gtr II
|                                    \0.5/  \0.5/
|-----------------|----------------------------------||
|-----------------|-4---------------(4)----(4)-------||
|-----------------|-3---------------(3)----(3)-------||
|-----------------|-1---------------(1)----(1)-------||
|-----------------|----------------------------------||
|-----------------|----------------------------------||


 Verse
  N.C.
  PM--------------------------| ~
|-----------------|-----------------|
|-----------------|-----------------|
|-----------------|-----------------|
|---------1-1-----|---------1-1-----|
|-3---1-3-----3-1-|-3---1-3-----3---|
|---3-------------|---3-------------|
|
|-----------------|-----------------|
|-----------------|-----------------|
|-----------------|-----------------|
|-----------------|-----------------|
|-----------------|-----------------|
|-----------------|-----------------|


  PM--------------------------| ~    PM--------------------------| ~
|-----------------|----------------|-----------------|-----------------|
|-----------------|----------------|-----------------|-----------------|
|-----------------|----------------|-----------------|-----------------|
|---------1-1-----|---------1-1----|---------1-1-----|---------1-1-----|
|-3---1-3-----3-1-|-3---1-3-----3--|-3---1-3-----3-1-|-3---1-3-----3---|
|---3-------------|---3------------|---3-------------|---3-------------|


                                     Pre-Chorus
                                      F5
                                                  \1______
  PM--------------------------| ~
|-----------------|----------------||----------|---------|
|-----------------|----------------||----------|---------|
|-----------------|----------------||----------|---------|
|---------1-1-----|---------1-1----||----------|---------|
|-3---1-3-----3-1-|-3---1-3-----3--||-3--------|-(3)-----|
|---3-------------|---3------------||-1--------|-(1)-----|


       Eb5/Bb                                      Bb5
                   \0.5/  \0.5/  \0.5/  \0.5/
                                                                        ~~~
|---------------|--------------------------------|----------|-----------------|
|--x-x-4--x-4---|-(4)----(4)----(4)----(4)-------|----------|--------3-(3)----|
|--x-x-3--x-3---|-(3)----(3)----(3)----(3)-------|----------|----[3]----------|
|---------------|--------------------------------|-3--------|--3--------------|
|---------------|--------------------------------|-1--------|-----------------|
|---------------|--------------------------------|----------|-----------------|


  F
                        ~~~~~
|------------------------------|
|------------------------------|
|-----------------[2]-([2])----|
|-------------[3]--------------|
|---[3]-([3])------------------|
|-1----------------------------|


                         Chorus
  G                       C5  Ab5     C5   Bb5   C5
                ~~~~~
|----------------------||----------------|-------------|
|----------------------||----------------|-------------|
|---------[4]-([4])----||----------------|-------------|
|-----[5]--------------||-5--------------|-------------|
|-[5]------------------||-3---6-(6)---10-|-8--8--10----|
|----------------------||-----4-(4)----8-|-6--6---8----|


  Ab5 Bb5        Eb5C5              Ab5     C5   Bb5   C5
|--------------|--------------|----------------|-------------|
|--------------|--------------|----------------|-------------|
|--------------|--------------|----------------|-------------|
|--------------|-8--5--(5)----|-5--------------|-------------|
|-6---8-(8)----|-6--3--(3)----|-3---6-(6)---10-|-8--8--10----|
|-4---6-(6)----|--------------|-----4-(4)----8-|-6--6---8----|


  Ab5 Bb5        Eb5C5          Ab5 Bb5
|--------------|--------------|--------------|--------|
|--------------|--------------|--------------|--------|
|--------------|--------------|--------------|--------|
|--------------|-8--5--(5)----|--------------|--------|
|-6---8-(8)----|-6--3--(3)----|-6---8-(8)----|-(8)----|
|-4---6-(6)----|--------------|-4---6-(6)----|-(6)----|


                          Guitar Solo
             Bb5           C5       G#5 C5(Bb5e 2)   C5(type 2)
 2/4        4/4
             Gtr I
             |               |      ||  |    |    |  |
             /               /      //  /    /    /  /

             Gtr II
                             \0.5
                                                     ~
|---------||------------||---------------|-----------------|
|--------o||------------||---------------|---------8-8-----|
|---------||--------<5>-||-(<5>)---------|-(<5>)---8-8-----|
|---------||------------||---------------|-----------------|
|-(8)----o||------------||---------------|-----------------|
|-(6)-----||------------||---------------|-----------------|


  C5    G#5       C5(tyBb52)       C5(type 2)
  |     | |        |    |     |     |
  /     / /        /    /     /     /

                                    \0.5
                                    ~~~~~
|--------------------|----------------------|
|--------------------|----------------------|
|-5s7-7s8-8s10-10s12-|-12s15-15s17-17-------|
|--------------------|----------------------|
|-3s5-5s6-6s=8--8s10-|-10s13-13s15-15-------|
|--------------------|----------------------|


  C5                G#5                          C5(type 2)
   |                 |       |                   |
   /                 /       /                   /

                                                     \0.5/
             T            T  T       T  T
|-----------------------------------------------------------|
|-11p8h11p8h11s20p8h11p8h11s20p8h11h13s20p8h11p8h=11p8------|
|-----------------------------------------------------------|
|-----------------------------------------------------------|
|-----------------------------------------------------------|
|-----------------------------------------------------------|


  Bb5                                  C5(typeC5)
   |                |                  |
   /                /                  /

     \0.5/    \0.5/
                                    ~~~~
|-------------------------------------------|
|-11p8h====11p8-----8h11p8-11b13==(11)------|
|-----------------------------------------x-|
|-----------------------------------------x-|
|-------------------------------------------|
|-------------------------------------------|


            C#5                 G5
   |         |        |         |
   /         /        /         /

                      \2.5
          PM
|--8--------11------(11)------|----------------------------------|
|-11pb13----14pb16==(14)r-----|----------------------------------|
|-----------------------------|----------------------------------|
|-----------------------------|-----------1---------------1-3p0--|
|---------0-------------------|-3-1---1-3---3-1-3-1---1-3--------|
|-----------------------------|-----3---------------3------------|


              Chorus
  G5           N.C.      C5  Ab5     C5   Bb5   C5
  |
  /

  \1
|-----------||---------|----------------|-------------|
|-----------||---------|----------------|-------------|
|-----------||---------|----------------|-------------|
|-----------||---------|-5--------------|-------------|
|-----------||---------|-3---6-(6)---10-|-8--8--10----|
|-3---------||---------|-----4-(4)----8-|-6--6---8----|


  Ab5 Bb5        Eb5C5              Ab5     C5   Bb5   C5
|--------------|--------------|----------------|-------------|
|--------------|--------------|----------------|-------------|
|--------------|--------------|----------------|-------------|
|--------------|-8--5--(5)----|-5--------------|-------------|
|-6---8-(8)----|-6--3--(3)----|-3---6-(6)---10-|-8--8--10----|
|-4---6-(6)----|--------------|-----4-(4)----8-|-6--6---8----|


  Ab5 Bb5        Eb5C5                  Ab5    Bb5
|--------------|--------------||---------------------------|
|--------------|--------------||o--------------------------|
|--------------|--------------||---------------------------|
|--------------|-8--5--(5)----||---------------------------|
|-6---8-(8)----|-6--3--(3)----||o---------6-----8--(8)-----|
|-4---6-(6)----|--------------||----------4-----6--(6)-----|
|
|                             Gtr I
|                                               ~~~~~~~
|--------------|--------------||---------------------------|
|--------------|--------------||o--------------------------|
|--------------|--------------||--10b12-(10)---10-(10)---8-|
|--------------|--------------||---------------------------|
|--------------|--------------||o--------------------------|
|--------------|--------------||---------------------------|


         Eb5       C5
|--------------------------------|
|--------------------------------|
|--------------------------------|
|----------8-------5--(5)--------|
|----------6-------3--(3)--------|
|--------------------------------|
|
|--------------------------------|
|--------------------------------|
|-10b12==(10)r(10)-8-------------|
|---------------------10---8-10--|
|--------------------------------|
|--------------------------------|


        Ab5    Bb5                   Eb5         C5
                        PM|
|---------------------------|---------------------------------||-----*|
|---------------------------|--------------------------------o||-----*|
|---------------------------|---------------------------------||-----*|
|---------------------------|----------8----------5---(5)-----||-----*|
|---------6-----8--(8)------|----------6----------3---(3)----o||-----*|
|---------4-----6--(6)--6-6-|---------------------------------||-----*|
|
|       Gtr II
|                                                 ~~~~~~~~
|---------------------------|---------------------------------||-----*|
|---------------------------|--------------------------------o||-----*|
|-10b12-(10)---10-(10)----8-|-10b12==(10)r(10)-8--------------||-----*|
|---------------------------|--------------------10--(10)-----||-----*|
|---------------------------|--------------------------------o||-----*|
|---------------------------|---------------------------------||-----*

            
            
Suggest correction
Creating personal tab
Creating personal tab
You can edit any tab online and save it as your Personal.

You can edit, replace or remove any tab part or add personal notes – all changes will be seen only by you.

Personal tabs can be accessed anytime from any device, even offline.
Learn more »
Give kudos to tab author, rate the tab!
1 2 3 4 5
comments
print report bad tab
1 comment total.
0 reply
Metallica_Man55 392 Jun 03, 2007 04:19 PM

also not a good tab. there's only one guitar, and it is not well written

guest
You may want to rate the tab now too:
select rating
Wanna post a correction for this tab? Suggest correction