Oops, an error
Loading. Please wait.

You Want To Make A Memory Tab

version 2
version 2

Whole song

Interactive

40,168 views 30 this week
7 commentsread comments
1 2 3 4 5
excellent!
x 27
add to favorites
launch autoscroll
font size
0
reset
how to read this tab
guitar tuner
Autoscroll
slow
fast
+/-
esc
set tempo
stop
Help us to improve Ultimate-Guitar.com Take our survey!
×
Author
Title: You want to make a memory
by Jon bon Jovi
Tabbed by: Triani-Sesiha

Intro:

E-----------------------------|
B-----------------------------|
G--5-5-5-5-5-5-5-5------------|
D--5-5-5-5-5-5-5-5------------|  2X
A--3-3-3-3-3-3-3-3------------|
E-----------------------------|

VerSe1

E-----------------------------|
B-----------------------------|
G--5-5-5-5-5-5-5-5------------|
D--5-5-5-5-5-5-5-5------------|  
A--3-3-3-3-3-3-3-3------------|
E-----------------------------|
Hello again, it's you and me

E-----------------------------|
B-----------------------------|
G--5-5-5-5-5-5-5-5------------|
D--5-5-5-5-5-5-5-5------------|  
A--2-2-2-2-2-2-2-2------------|
E-----------------------------|
Kinda always like it used to be

E-----------------------------|
B-----------------------------|
G-----------------------------|
D--2-2-2-2-2-2-2-2------------|  
A--2-2-2-2-2-2-2-2------------|
E--0-0-0-0-0-0-0-0------------|
Sippin' wine, killing time

E-----------------------------|
B-----------------------------|
G-----------------------------|
D--3-3-3-3-3-3-3-3------------|  
A--3-3-3-3-3-3-3-3------------|
E--1-1-1-1-1-1-1-1------------|
Trying to solve life's mysteries

E-----------------------------|
B-----------------------------|
G--5-5-5-5-5-5-5-5------------|
D--5-5-5-5-5-5-5-5------------|  
A--3-3-3-3-3-3-3-3------------|
E-----------------------------|
How's your life, it's been awhile?

E-----------------------------|
B-----------------------------|
G--5-5-5-5-5-5-5-5------------|
D--5-5-5-5-5-5-5-5------------|  
A--2-2-2-2-2-2-2-2------------|
E-----------------------------|
God it's good to see you smile

E-----------------------------|
B-----------------------------|
G-----------------------------|
D--2-2-2-2-2-2-2-2------------|  
A--2-2-2-2-2-2-2-2------------|
E--0-0-0-0-0-0-0-0------------|
I see you reaching for your keys

E-----------------------------|
B-----------------------------|
G-----------------------------|
D--3-3-3-3-3-3-3-3------------|  
A--3-3-3-3-3-3-3-3------------|
E--1-1-1-1-1-1-1-1------------|
Looking for a reason not to leave

Bridge
   
E------------------------------------|
B------------------------------------|
G--5-5-5-5-5-5-5-5-------------------|
D--5-5-5-5-5-5-5-5---5-5-5-5-5-5-5---|  
A--3-3-3-3-3-3-3-3---5-5-5-5-5-5-5---|
E--------------------3-3-3-3-3-3-3---|  
If you don't know    if you should stay

E-------------------------------------|
B-------------------------------------|
G-------------------------------------|
D--7-7-7-7-7-7-7-7---3-3-3-3-3-3-3-3--|  
A--7-7-7-7-7-7-7-7---3-3-3-3-3-3-3-3--|
E--5-5-5-5-5-5-5-5---1-1-1-1-1-1-1-1--|
If you don't say     what's on your mind

E-----------------------------|
B-----------------------------|
G--5-5-5-5-5-5-5-5------------|
D--5-5-5-5-5-5-5-5------------|  
A--3-3-3-3-3-3-3-3------------|
E-----------------------------|
Baby just breathe

E-----------------------------|
B-----------------------------|
G-----------------------------|
D--2-2-2-2-2-2-2-2------------|  
A--2-2-2-2-2-2-2-2------------|
E--0-0-0-0-0-0-0-0------------|
there's nowhere else 

E-----------------------------|
B-----------------------------|
G-----------------------------|
D--3-3-3-3-3-3-3-3------------|  
A--3-3-3-3-3-3-3-3------------|
E--1-1-1-1-1-1-1-1------------|
tonight we should be

E-------------------------------------|
B-------------------------------------|
G--5-5-5-5-5-5-5-5-5-5-5-5-5-5-5-5----|
D--5-5-5-5-5-5-5-5-5-5-5-5-5-5-5-5----|  
A--3-3-3-3-3-3-3-3-3-3-3-3-3-3-3-3----|
E-------------------------------------|
you wanna make a memory?

Verse2

E-----------------------------|
B-----------------------------|
G--5-5-5-5-5-5-5-5------------|
D--5-5-5-5-5-5-5-5------------|  
A--3-3-3-3-3-3-3-3------------|
E-----------------------------|
I dug up this old photograph

E-----------------------------|
B-----------------------------|
G--5-5-5-5-5-5-5-5------------|
D--5-5-5-5-5-5-5-5------------|  
A--2-2-2-2-2-2-2-2------------|
E-----------------------------|
Look at all that hair we had

E-----------------------------|
B-----------------------------|
G-----------------------------|
D--2-2-2-2-2-2-2-2------------|  
A--2-2-2-2-2-2-2-2------------|
E--0-0-0-0-0-0-0-0------------|
It's bitter sweet to hear you laugh

E-----------------------------|
B-----------------------------|
G-----------------------------|
D--3-3-3-3-3-3-3-3------------|  
A--3-3-3-3-3-3-3-3------------|
E--1-1-1-1-1-1-1-1------------|
Your phone is ringin i don't wanna ask

Bridge2

E------------------------------------|
B------------------------------------|
G--5-5-5-5-5-5-5-5-------------------|
D--5-5-5-5-5-5-5-5---5-5-5-5-5-5-5---|  
A--3-3-3-3-3-3-3-3---5-5-5-5-5-5-5---|
E--------------------3-3-3-3-3-3-3---|
If you go now        I'll understand

E-------------------------------------|
B-------------------------------------|
G-------------------------------------|
D--7-7-7-7-7-7-7-7---3-3-3-3-3-3-3-3--|  
A--7-7-7-7-7-7-7-7---3-3-3-3-3-3-3-3--|
E--5-5-5-5-5-5-5-5---1-1-1-1-1-1-1-1--|
if you stay hey      i've gotta plan

Chorus:

E----------------------------------------|
B----------------------------------------|
G--5-5-5-5-5-5-5-5-------5-5-5-5-5--5-5--|
D--5-5-5-5-5-5-5-5-------5-5-5-5-5-5-5-5-|  
A--3-3-3-3-3-3-3-3-------2-2-2-2-2-2-2-2-|
E----------------------------------------|
You wanna make a memory?

E-------------------------------------------------|
B-------------------------------------------------|
G-------------------------------------------------|
D--7-7-7-7-7-7-7-7---------------3-3-3-3-3-3-3-3--|  
A--7-7-7-7-7-7-7-7---------------3-3-3-3-3-3-3-3--|
E--5-5-5-5-5-5-5-5---------------1-1-1-1-1-1-1-1--|
You wanna steal a peice of time?

E--------------------------------------------|
B--------------------------------------------|
G--5-5-5-5-5-5-5-5-----------5-5-5-5-5--5-5--|
D--5-5-5-5-5-5-5-5-----------5-5-5-5-5-5-5-5-|  
A--3-3-3-3-3-3-3-3-----------2-2-2-2-2-2-2-2-|
E--------------------------------------------|
You can sing the melody to me

E-------------------------------------------------|
B-------------------------------------------------|
G-------------------------------------------------|
D--7-7-7-7-7-7-7-7---------------3-3-3-3-3-3-3-3--|  
A--7-7-7-7-7-7-7-7---------------3-3-3-3-3-3-3-3--|
E--5-5-5-5-5-5-5-5---------------1-1-1-1-1-1-1-1--|
And I can write a couple lines

E-----------------------------|
B-----------------------------|
G--5-5-5-5-5-5-5-5------------|
D--5-5-5-5-5-5-5-5------------|  
A--3-3-3-3-3-3-3-3------------|
E-----------------------------|                 
You wanna make a memory

Guitar Solo
-------------------------------------|
-------------------------------------|
-----------------------5-7/9-9-9-7/5-|
---------------------5---------------|
-3-3-5/7/5-3-3/5--5/7----------------|
-------------------------------------|

Bridge
E------------------------------------|
B------------------------------------|
G--5-5-5-5-5-5-5-5-------------------|
D--5-5-5-5-5-5-5-5---5-5-5-5-5-5-5---|  
A--3-3-3-3-3-3-3-3---5-5-5-5-5-5-5---|
E--------------------3-3-3-3-3-3-3---|  
If you don't know    if you should stay

E-------------------------------------|
B-------------------------------------|
G-------------------------------------|
D--7-7-7-7-7-7-7-7---3-3-3-3-3-3-3-3--|  
A--7-7-7-7-7-7-7-7---3-3-3-3-3-3-3-3--|
E--5-5-5-5-5-5-5-5---1-1-1-1-1-1-1-1--|
If you don't say     what's on your mind

E-----------------------------|
B-----------------------------|
G--5-5-5-5-5-5-5-5------------|
D--5-5-5-5-5-5-5-5------------|  
A--3-3-3-3-3-3-3-3------------|
E-----------------------------|
Baby just breathe

E-----------------------------|
B-----------------------------|
G-----------------------------|
D--2-2-2-2-2-2-2-2------------|  
A--2-2-2-2-2-2-2-2------------|
E--0-0-0-0-0-0-0-0------------|
there's nowhere else 

E-----------------------------|
B-----------------------------|
G-----------------------------|
D--3-3-3-3-3-3-3-3------------|  
A--3-3-3-3-3-3-3-3------------|
E--1-1-1-1-1-1-1-1------------|
tonight we should be.., we should be..



Chorus

E----------------------------------------|
B----------------------------------------|
G--5-5-5-5-5-5-5-5-------5-5-5-5-5--5-5--|
D--5-5-5-5-5-5-5-5-------5-5-5-5-5-5-5-5-|  
A--3-3-3-3-3-3-3-3-------2-2-2-2-2-2-2-2-|
E----------------------------------------|
You wanna make a memory?

E-------------------------------------------------|
B-------------------------------------------------|
G-------------------------------------------------|
D--7-7-7-7-7-7-7-7---------------3-3-3-3-3-3-3-3--|  
A--7-7-7-7-7-7-7-7---------------3-3-3-3-3-3-3-3--|
E--5-5-5-5-5-5-5-5---------------1-1-1-1-1-1-1-1--|
You wanna steal a peice of time?

E--------------------------------------------|
B--------------------------------------------|
G--5-5-5-5-5-5-5-5-----------5-5-5-5-5--5-5--|
D--5-5-5-5-5-5-5-5-----------5-5-5-5-5-5-5-5-|  
A--3-3-3-3-3-3-3-3-----------2-2-2-2-2-2-2-2-|
E--------------------------------------------|
You can sing the melody to me

E-------------------------------------------------|
B-------------------------------------------------|
G-------------------------------------------------|
D--7-7-7-7-7-7-7-7---------------3-3-3-3-3-3-3-3--|  
A--7-7-7-7-7-7-7-7---------------3-3-3-3-3-3-3-3--|
E--5-5-5-5-5-5-5-5---------------1-1-1-1-1-1-1-1--|
And I can write a couple lines

E----------------------------------------|
B----------------------------------------|
G--5-5-5-5-5-5-5-5-------5-5-5-5-5--5-5--|
D--5-5-5-5-5-5-5-5-------5-5-5-5-5-5-5-5-|  =
A--3-3-3-3-3-3-3-3-------2-2-2-2-2-2-2-2-|
E----------------------------------------|
                                                           =     3X
E-------------------------------------------------|
B-------------------------------------------------|
G-------------------------------------------------|  =
D--7-7-7-7-7-7-7-7---------------3-3-3-3-3-3-3-3--|  
A--7-7-7-7-7-7-7-7---------------3-3-3-3-3-3-3-3--|
E--5-5-5-5-5-5-5-5---------------1-1-1-1-1-1-1-1--|
You wanna make a memory

Play at last chorus 
------------------------------------|
------------------------------------|
------------------------------------|
------------------------------------|
-3-3-3-5-5/7-5-----5-3-2-2/3--------|
------------------------------3-3/5-|

my very first tab... email me for questions at this tab.. treze13_sesiha@yahoo.com
khristine this is for you coz u love this song dude..

Rock on DuDe..!!!
Suggest correction
What's this?
You can suggest a correction to this tab. Community and Mods will review your correction and vote to approve or reject it.
comments
print report bad tab
7 comments total. Showing first comments. show 1 bad comment
+1 reply
JasonT77 12 wrote on July 4 2007, 12:30 am

Awesome job on this tab. It was what the doctor ordered. "Cause her love is like Bad Medicine". wait wrong song. "You wanna make a memory..."

+1 reply
flaminhotcheeto 65 wrote on August 4 2007, 12:33 am

Amazing job! Perfect.

guest
You may want to rate the tab now too:
select rating
Please do not post tabs as comments. Select "correction" instead!