Oops, an error
Loading. Please wait.

Nudes tab

46 views 3 this week
no commentswrite comment
1 2 3 4 5
3 more votes to show rating
add to favorites
×
Save as Personal and add changes to this tab that will be seen only by you. Learn more ›
×
You can save this tab as Personal to edit and correct it or add notes. All changes will be seen only by you. Learn more »
launch autoscroll
font size
0
reset
how to read this tab
guitar tuner
edit
Autoscroll
slow
fast
+/-
esc
set tempo
stop
[Intro Incompleta]
 Base Violão (Falta a parte do dedilhado) 
     cima e baixo no ritimo até a parte da distorção!
C#|-1-------------------------------------------------------------------------|
G#|-3----------1--------------1-----------------------------------------------|
E |-2----------2-------1------2-----------------------------------------------|
B |-0----------2-------2------2-----------------------------------------------|
F#|------------0-------2------0-----------------------------------------------|
B |--------------------x------------------------------------------------------|

(Guitarra Mini Solos/Chorus )
"Alguien apaga el fuego de ella"
C#|------7-8-10-8-7-8-7~\1--|------------------------|--7h8-7-8-7-8--8-7-10-8-7-----------|
G#|---10--------------------|-10-12-13-15-13-12-10\5-|------------------------------------|
B |-------------------------|------------------------|------------------------------------|
B |-------------------------|------------------------|------------------------------------|
F#|-------------------------|------------------------|------------------------------------|
B |-------------------------|------------------------|------------------------------------|

C#|-8/10-10-10-8-7-8-7----------|-------------------------------|------------------------|
G#|--------------------8-10~\---|-------------------------------|------------------------|
E |-----------------------------|----9h10-9--7-9-7-5---5-7\-----|------------------------|
B |-----------------------------|--------------------7----------|-10h12-10-7------5-7\---|
F#|-----------------------------|-------------------------------|------------10-7--------|
B |-----------------------------|-------------------------------|------------------------|

C#|--------------------------------------12h13-12-10-12-10-8-7----------------|
G#|------------------------------------------------------------8\10-----------|
E |-9h10h9-10--9h10h9-9-------------------------------------------------------|
B |---------------------------------------------------------------------------|
F#|---------------------------------------------------------------------------|
B |---------------------------------------------------------------------------|

(Solo antes do refrão)
   "Pero es bueno saber quanto años tem la sereia"
C#|---------------------------------------------------------------------------|
G#|-12h13-12h13-13-13h12-13h12-10-10-12-10-12-13~--12----9-10-12-10-9-5-------|
E |---------------------------------------------------------------------------|
B |---------------------------------------------------------------------------|
F#|---------------------------------------------------------------------------|
B |---------------------------------------------------------------------------|
 
Passagem sax pro refrão
Refrão em Portugues

Guitarra Distorção
(segue o ritimo)
Alguém apaga o fogo dela
"ABAFADO"
C#|---------------------------------------------------------------------------|
G#|---------------------------------------------------------------------------|
E |---------------------------------------------------------------------------|
B |-000000000---7777777777---2222222222---7777777777--------------------------| (x2)
F#|-000000000---7777777777---2222222222---7777777777--------------------------|
B |-000000000---7777777777---2222222222---7777777777--------------------------|
pm............................................................................

"Mas é bom saber quantos anos tem a sereia"
C#|---------------------------------------------------------------------------|
G#|---------------------------------------------------------------------------|
E |-------------------222222222------------2222222222-------------------------|
B |-0-2-3--3333333333-222222222-2222222222-2222222222-------------------------|
F#|-0-2-3--3333333333-000000000-2222222222-0000000000-------------------------|
B |-0-2-3--3333333333-----------2222222222------------------------------------|

SOLO FINAL

C#|------------------------------------------------------7h8-7-5-3-0-1-0~--5-7-8-5-7--12h13-12-10-10-12-8-|
G#|---5h6-6-3-1---------------------------------\6/8-6-5--------------------------------------------------|
E |-------------2-5-7---------------0-5-6-5-6-5-----------------------------------------------------------|
B |-------------------------0-5-7-0-----------------------------------------------------------------------|
F#|-------------------------------------------------------------------------------------------------------|
B |-------------------------------------------------------------------------------------------------------|

C#|---0-5-0-7-0-8-0-7-0-5-0-3-5-3--0-3-5-7-5----------------------------------------------------|
G#|-------------------------------------------5-5-5-6-6-5-5----6-5-6-5-6-5-6-5-6-8-6-5-(x2)-----|
E |---------------------------------------------------------------------------------------------|
B |---------------------------------------------------------------------------------------------|
F#|---------------------------------------------------------------------------------------------|
B |---------------------------------------------------------------------------------------------|


************************************

| x  Dead note
| h  Hammer-on
| \  Slide down
| /  Slide up
| ~  Vibrato

************************************
Suggest correction
Creating personal tab
Creating personal tab
You can edit any tab online and save it as your Personal.

You can edit, replace or remove any tab part or add personal notes – all changes will be seen only by you.

Personal tabs can be accessed anytime from any device, even offline.
Learn more »
Give kudos to tab author, rate the tab!
1 2 3 4 5
comments
print report bad tab
guest
You may want to rate the tab now too:
select rating
Wanna post a correction for this tab? Suggest correction