Oops, an error
Loading. Please wait.

Amerijuanican tab

version 1
version 1

Whole song

15,121 views 27 this week
6 commentsread comments
1 2 3 4 5
x 9
add to favorites
×
Save as Personal and add changes to this tab that will be seen only by you. Learn more ›
×
You can save this tab as Personal to edit and correct it or add notes. All changes will be seen only by you. Learn more »
launch autoscroll
font size
0
reset
how to read this tab
guitar tuner
edit
Autoscroll
slow
fast
+/-
esc
set tempo
stop
Author
Tabbers playing skills
advanced
Bongzilla - Amerijuanican
Amerijuanican (2005)
Tabbed By ruker (Varuker@gmail.com)
Tuned Down 2.5 Steps BEADF#B

-------------
Key:
-------------
. Palm Mute
~ Vibrato
h Hammer-On
p Pull-Off
/ Slide Up
\ Slide Down
-------------

Intro (0:02)                   4x
||-------------------------------||
||*-----------------------------*||
||-------------------------------||
||-------------------------------||
||*-------4-6-6--7-6-4--6-4-----*||
||--6--6--------------------6-4--||


Riff A (0:22)                   4x
||-------------------------------||
||*-----------------------------*||
||-------------------------------||
||--------6-8-8--9-8-6--8-6------||
||*-8--8--4-6-6--7-6-4--6-4-8-6-*||
||--6--6--------------------6-4--||


Bridge (0:42)
  Lead
||-------------------------------------------------------------------||
||-------------------------------------------------------------------||
||-------------------------------------------------------------------||
||---------------------------------------------------------9--8-6----||
||------------------------4h6p4----------------------------7--6-4-6--||
||--6--6--6--4-6--4-6--6--------6--4-6--6--6--4-6--4-6--6---------4--||
|                                                                     |
|                                                                     |
| Rhythm                                                              |
||-------------------------------------------------------------------||
||-------------------------------------------------------------------||
||-------------------------------------------------------------------||
||---------------------------------------------------------9--8-6----||
||--4---------------------4h6p4----------------------------7--6-4-6--||
||--6---------------------------6---------------------------------4--||

                                                           ___________ _________
Riff B (0:51)                                             |1,2,3,4    |5        |
||--------------------------------------------------------|-----------|---------||
||*-------------------------------------------------------|----------*|---------||
||--------------------------------------------------------|-----------|---------||
||--------------------------------------------------------|-9--8-6----|-9--8-6--||
||*-8--8--8--6-8--6-8--8--4h6p4----6-8--8--8--6-8--6-8--8-|-7--6-4-6-*|-7--6-4--||
||--6--6--6--4-6--4-6--6--------6--4-6--6--6--4-6--4-6--6-|--------4--|---------||


Chorus (1:42)                                           4x
||--------------------------------------------------------||
||*------------------------------------------------------*||
||--------------------------------------------------------||
||----------6----8-9-8--6-8-6----------6----9-8-6--8-6----||
||*-6/8-8-8-4----6-7-6--4-6-4--6/8-8-8-4----7-6-4--6-4-8-*||
||--4/6-6-6--------------------4/6-6-6-----------------6--||
        . .                        . .
                                                           ___________ _________
Riff B (2:23)                                             |1,2,3,4    |5        |
||--------------------------------------------------------|-----------|---------||
||*-------------------------------------------------------|----------*|---------||
||--------------------------------------------------------|-----------|---------||
||--------------------------------------------------------|-9--8-6----|-9--8-6--||
||*-8--8--8--6-8--6-8--8--4h6p4----6-8--8--8--6-8--6-8--8-|-7--6-4-6-*|-7--6-4--||
||--6--6--6--4-6--4-6--6--------6--4-6--6--6--4-6--4-6--6-|--------4--|---------||


Chorus (3:14)                                           4x
||--------------------------------------------------------||
||*------------------------------------------------------*||
||--------------------------------------------------------||
||----------6----8-9-8--6-8-6----------6----9-8-6--8-6----||
||*-6/8-8-8-4----6-7-6--4-6-4--6/8-8-8-4----7-6-4--6-4-8-*||
||--4/6-6-6--------------------4/6-6-6-----------------6--||
        . .                        . .

Riff C (3:53)                                                            4x
||-------------------------------------------------------------------------||
||*-----------------------------------------------------------------------*||
||-------------------------------------------------------------------------||
||--------------------------------------------------9--8-6--8-8--6---------||
||*-8--8--8--6-8--6-8--8--6--8-6--8-8--8--8--6-8--6-7--6-4--6-6--4-4--6-8-*||
||--6--6--6--4-6--4-6--6--4--6-4--6-6--6--6--4-6--4----------------6--4-6--||


Solo Rhythm (4:34) 18x
||--------------------||
||*------------------*||
||--------------------||
||--------6-----------||
||*-8--8--4--8-------*||
||--6--6-----6-4h6p4--||


Solo Lead (Thanks to UG user Survivalism)
||--------------------------------------------------------------|
||--------------------------------------------------------------|
||--------------------------------------------------------------|
||-8----10b--8--6--8--8---10b--8--6--8--6--8--8--11--13b---11-8-|
||--------------------------------------------------------------|
||--------------------------------------------------------------|


|--------------------------------------------------------------|
|--------------------------------------------------------------|
|--------------------------------------------------------------|
|-8----6h8---------------------------------8--11---------------|
|----------8--6b-6---4-4h6p4-----------8-----------8--6--8--8--|
|----------------------------4h6p4-----------------------------|


|-------------------------------------------------------------------------------|
|-------------------------------------------------------------------------------|
|-------------------------------------------------------------------------------|
|-----8b-----8b----------8b----8b---------8-6---6-------6-8-6-------------------|
|-8-6-8b-----8b---8-6-8--8b----8b---8-6-6-8---8---8-6-8-------8-6-6-4-6-6-------|
|-------------------------------------------------------------------------6-4/6-|


|----------------------------------------------------------------|
|----------------------------------------------------------------|
|----------------------------------------------------------------|
|---------6---------------------8-----6-8-6---------8----6h8-8-8-|
|-8--8----4--8--6-4-----8--8----8--8---------8--8---8--8---------|
|-6--6-------6------6---6--6-------6---------6--6------6---------|


|--------------------------------------------------------------------||
|--------------------------------------------------------------------||
|--------------------------------------------------------------------||
|---------6-----8-6-8-----------11--8--6-8-6-8-6---------------------||
|-8--8----4--8----------8--8---------------------8-8-6-6-4-------4-6-||
|-6--6-------6----------6--6-------------------------------6-4-6-----||


Outro (5:19)                                                                4x
||----------------------------------------------------------------------------||
||*--------------------------------------------------------------------------*||
||----------------------------------------------------------------------------||
||--------6----------------9--8-------------6----------9--8-------8--6--------||
||*-8--8--4--8-------8--8--7--6-4h6p4-8--8--4--8-------7--6-4h6p4-6--4-------*||
||--6--6-----6-4h6p4-6--6-------------6--6-----6-4h6p4-----------------4h6p4--||

                         4x
||-------------------------||
||*-----------------------*||
||-------------------------||
||--9--8-------8--6--------||
||*-7--6-4h6p4-6--4-------*||
||------------------4h6p4--||

                                                                            4x
||----------------------------------------------------------------------------||
||*--------------------------------------------------------------------------*||
||----------------------------------------------------------------------------||
||--------6----------------9--8-------------6----------9--8-------8--6--------||
||*-8--8--4--8-------8--8--7--6-4h6p4-8--8--4--8-------7--6-4h6p4-6--4-------*||
||--6--6-----6-4h6p4-6--6-------------6--6-----6-4h6p4-----------------4h6p4--||

                         4x
||-------------------------|||-----------||
||*-----------------------*|||-----------||
||-------------------------|||-----------||
||--9--8-------8--6--------|||-----------||
||*-7--6-4h6p4-6--4-------*|||--8~-------||
||------------------4h6p4--|||--6~-------||
Suggest correction
Creating personal tab
Creating personal tab
You can edit any tab online and save it as your Personal.

You can edit, replace or remove any tab part or add personal notes – all changes will be seen only by you.

Personal tabs can be accessed anytime from any device, even offline.
Learn more »
comments
print report bad tab
6 comments total. Showing first comments.
0 reply
ruker 3,458 Apr 10, 2010 06:34 PM

Just a FYI, someone rated this 1 star out of spite because I didn't want to accept their useless (and ripped off) tab.

0 reply
W35M4N 20 Jul 06, 2010 02:21 PM

This seems like a good tab, but I think it would be good to note that B tuning is only 2.5 steps from standard, not three (B is only half a step from C, not a whole step.)

0 reply
ruker 3,458 Jul 09, 2010 07:22 PM

Sorry, yeah I know. I wrote most of these Bongzilla tabs while stoned (lol, how else). So the early ones (like this one) I used the same template for, having 3 steps instead of 2.5 steps like B is. The correct tuning is there anyways.

guest
You may want to rate the tab now too:
select rating
Wanna post a correction for this tab? Suggest correction