Oops, an error
Loading. Please wait.

Good Morning Rain Bass Tab

1 view 1 this week
no commentswrite comment
1 2 3 4 5
3 more votes to show rating
add to favorites
launch autoscroll
font size
0
reset
guitar tuner
Autoscroll
slow
fast
+/-
esc
set tempo
stop
Help us to improve Ultimate-Guitar.com Take our survey!
×
Author
Difficulty
novice
Tabbed by: 6METAL6BASSIST6
E-mail: petergriffinav@gmail.com

Tuning: EADG

G|----------------------------------------------------------------|
D|----------------------------------------------------------------|
A|1-----------1---1---------------3-----------3---3---------------|
E|----------------------------------------------------------------|

G|----------------------------------------------------------------|
D|1-----------1---1-----------------------------------------------|
A|--------------------------------1-----------1---1---------------|
E|----------------------------------------------------------------|

0:09

G|----------------------------------------------------------------|
D|----------------------------------------------------------------|
A|1-----------1---1---------------3-----------3---3-----------3---|
E|----------------------------------------------------------------|

G|----------------------------------------------------------------3---------------|
D|1-----------1---1-------------------------------------------3-------------------|
A|--------------------------------1---------------1---1-------------------1-------|
E|--------------------------------------------------------------------------------|

G|----------------------------------------------------------------|
D|--------------------------------1-----------1---1-----------1---|
A|3-----------3---3---3-------3-----------------------------------|
E|----------------------------------------------------------------|

G|----------------------------------------------------------------|
D|----------------------------------------------------------------|
A|1-----------1---1---------------3-----------3---3---3-------3---|
E|----------------------------------------------------------------|

G|----------------------------------------------------------------3---------------|
D|1-----------1---1---------------1-----------1---------------3-------------------|
A|------------------------------------------------1---1-------------------1-------|
E|--------------------------------------------------------------------------------|

0:34

G|----------------------------------------------------------------|
D|--------------------------------1-----------1---1---------------|
A|3-----------3---3-----------3-----------------------------------|
E|----------------------------------------------------------------|

G|--------------------------------3-------------------------------|
D|----------------------------3-----------------------------------|
A|1-----------1---1---1-----------------------1---1---1-----------|
E|----------------------------------------------------------------|

0:43

G|----------------------------------------------------------------|
D|--------------------------------1-----1-1-----------------------|
A|3-----3-3-------3-----3-3-----------------------1---------------|
E|----------------------------------------------------------------|

G|----------------------------------------------------------------|
D|--------------------------------1-----1-1-----------------------|
A|3-----3-3-------3-----3-3-----------------------1-----1-1-------|
E|----------------------------------------------------------------|

G|------------------------------------3-3---------|
D|--------------------------------3-5-------5-3---|
A|1-----1-1-------1-----1-1-----------------------|
E|------------------------------------------------|

0:56

G|----------------------------------------------------------------|
D|--------------------------------1-----1-1-----------------------|
A|3-----3-3-------3-----3-3-----------------------1-----1-1-------|
E|----------------------------------------------------------------|

G|----------------------------------------------------------------|
D|----------------------------------------------------------------|
A|1-----1-1-------1-----1-1-------3-----3-3-------3-----3-3-------|
E|----------------------------------------------------------------|

G|----------------------------------------------------------------|
D|1-----1-1-------1-----1-1---------------------------------------|
A|--------------------------------1-----1-1-------1-----1-1-------|
E|----------------------------------------------------------------|

G|--------------------------------|
D|--------------------------------|
A|1-----1-1-------1---------------|
E|------------1-------------------|

1:13

G|----------------------------------------------------------------|
D|--------------------------------1-----------1---1-----------1---|
A|3-----------3---------------------------------------------------|
E|----------------------------------------------------------------|

G|--------------------------------3---------------|
D|1-----------1---------------3-------------------|
A|----------------1-----------------------1-------|
E|------------------------------------------------|

G|----------------------------------------------------------------|
D|--------------------------------1-----------1---1-----------1---|
A|3-----------3---3---3-------3-----------------------------------|
E|----------------------------------------------------------------|

G|----------------3-\-2-------------------------------------------|
D|------------3-----------5---3-----------------------------------|
A|1-------------------------------3-----------3---3-----------3---|
E|----------------------------------------------------------------|

G|----------------------------------------------------------------3---------------|
D|1-----------1---1---------------1-----------1---------------3-------------------|
A|------------------------------------------------1---1-------------------1-------|
E|--------------------------------------------------------------------------------|

1:36

G|----------------------------------------------------------------|
D|--------------------------------1-----------1---1-----------1---|
A|3-----------3---3---3-------3-----------------------------------|
E|----------------------------------------------------------------|

G|----------------3-\-2-------------------------------------------|
D|------------3-----------5---3-------------------3-------0-------|
A|1-------------------------------1-----------1---------------1---|
E|----------------------------------------------------------------|

1:44

G|----------------------------------------------------------------|
D|--------------------------------1-----1-1-----------------------|
A|3-----3-3-------3-----3-3-----------------------1-----1-1-------|
E|----------------------------------------------------------------|

G|----------------------------------------------------------------|
D|----------------------------------------------------------------|
A|1-----1-1-------1-----1-1-------3-----3-3-------3-----3-3-------|
E|----------------------------------------------------------------|

G|----------------------------------------------------------------|
D|1-----1-1-------1-----1-----------------------------------------|
A|--------------------------------1-----1-1-------1-----1-1-------|
E|----------------------------------------------------------------|

G|--------------------------------|
D|--------------------------------|
A|1-----1-1-------1---------------|
E|------------1-------------------|

2:00

G|----------------------------------------------------------------|
D|----------------------------------------------------------------|
A|3-----3---------3-----3-3-------1-----1-1-------1-----1-1-------|
E|----------------------------------------------------------------|

G|----------------------------------------------------------------|
D|----------------------------------------------------------------| until fadeout.
A|3-----3-3-------3-----3-3-------1-----1-1-------1-----1-1-------|
E|----------------------------------------------------------------|
Suggest correction
Give kudos to tab author, rate the tab!
1 2 3 4 5
comments
print report bad tab
guest
You may want to rate the tab now too:
select rating
Wanna post a correction for this tab? Suggest correction