Oops, an error
Loading. Please wait.

Pendant Que bass

13 views 1 this week
no commentswrite comment
1 2 3 4 5
3 more votes to show rating
add to favorites
×
Save as Personal and add changes to this tab that will be seen only by you. Learn more ›
×
You can save this tab as Personal to edit and correct it or add notes. All changes will be seen only by you. Learn more »
launch autoscroll
font size
0
reset
guitar tuner
edit
Autoscroll
slow
fast
+/-
esc
set tempo
stop
Author
Difficulty
Tabbed by: 6METAL6BASSIST6
E-mail: petergriffinav@gmail.com

Tuning: EADG

G|4---6---4-----------7---6---4-------9---7---6-------11--9---7---|
D|------------7---5---------------7---------------9---------------|
A|----------------------------------------------------------------|
E|----------------------------------------------------------------|

G|6---------------------------------------------------------------|
D|----5---4---------------4---------------4---------------4-------|
A|----------------------------------------------------------------|
E|----------------------------------------------------------------|

G|----------------------------------------------------------------|
D|4-------------------------------4-------------------------------|
A|----------------------------------------4-----------------------|
E|----------------2-------------------------------2---------------|

G|--------------------------------|
D|--------------------------------|
A|--------------------------------|
E|--------------------------------|

0:16

G|----------------------------------------------------------------|
D|----------------------------4-----------------------------------|
A|2-------------------------------2-------------------------------|
E|----------------------------------------------------------------|

G|----------------------------------------------------------------|
D|------------------------------------------------------------4---|
A|0-----------------------2---4---5-------------------------------|
E|----------------------------------------------------------------|

G|----------------2-------------------------------------------2---|
D|2-------4---5-------------------0-------0---2---4---------------|
A|----------------------------------------------------------------|
E|----------------------------------------------------------------|

G|------------2---4-----------2-----------------------------------|
D|5-------5---------------------5-4-------5-------4---------------|
A|----------------------------------------------------------------|
E|--------------------------------------------------------2-------|

G|----------------------------------------------------------------|
D|--------------------------------------------------------4-------|
A|------------5-------2-----------------------4---------------4---|
E|3---------------------------3---2-------------------------------|

G|--------------------------------|
D|--------------------------------|
A|--------------------------------|
E|2---------------------------2---|

0:45

G|----------------------------------------------------4-----------|
D|----------------------------4---------------------------4-------|
A|2-----------2---2---2-----------2-----------2---------------2---|
E|----------------------------------------------------------------|

G|----------------------------------------------------------------|
D|----------------------------------------------------------------|
A|0-----------0-------0---2---4---5-----------5---5-----------5---|
E|----------------------------------------------------------------|

G|----------------2-----------------------------------------------|
D|2-------4---5-------------------0-------0---2---4---------------|
A|----------------------------------------------------------------|
E|----------------------------------------------------------------|

G|------------2---4-------2---------------------------------------|
D|5---------------------------5---4-------5-------4---------------|
A|--------------------------------------------------------4-------|
E|------------------------------------------------------------2---|

G|----------------------------------------------------------------|
D|----------------------------------------------------------------|
A|--------------------------------------------------------4-------|
E|3-----------3---------------3---2-----------2-------------------|

G|--------------------------------|
D|--------------------------------|
A|--------------------------------|
E|2---------------------------2---|

1:12

G|--------------------4-------------------------------------------|
D|------------------------4---0-----------------------------------|
A|2-----------2---2---------------2-----------2---2-----------2---|
E|----------------------------------------------------------------|

G|----------------2---0-------------------------------------------|
D|------------------------4---2---0-------------------2---4---0---|
A|0-----------0---------------------------------------------------|
E|----------------------------------------------------------------|

G|--------4-------2---0-----------------------2-------------------|
D|2---5-------------------4---2---0---------------4---------------|
A|--------------------------------------------------------4-------|
E|------------------------------------------------------------2---|

G|----------------------------------------------------------------|
D|--------------------------------4-------5-------4---------------|
A|--------2---5-----------2---5---------------------------4-------|
E|3-------------------3---------------------------------------2---|

G|----------------------------------------------------------------|
D|----------------------------------------------------------------|
A|--------5---2-------5-------5-----------4-----------4---1---4---|
E|3-----------------------3-------2-----------2-------------------|

G|--------------------------------|
D|--------------------------------|
A|--------------------------------|
E|2---------------------------2---|

1:41

G|----------------------------------------------------------------|
D|------------------------4---------------------------------------|
A|2-----------2---2---------------2-----------2---2-----------2---|
E|----------------------------2-----------------------------------|

G|--------------------------------------------2-------------------|
D|------------------------------------------------5---4---2---0---|
A|0-----------0---0---0---2---4---5-------------------------------|
E|----------------------------------------------------------------|

G|------------4---2-----------------------------------------------|
D|2-------5-----------5---4---2---0---------------4---------------|
A|----------------------------------------------------------------|
E|--------------------------------------------------------2-------|

G|----------------------------------------------------------------|
D|----------------------------------------------------------------|
A|----------------------------------------------------------------|
E|3-----------3---3-----------3---2-------3-------2-----------2---|

G|----------------------------------------------------------------|
D|----------------------------------------------------------------|
A|--------------------------------------------------------2-------|
E|3-----------3---3---------------2-------------------------------|

G|------------------------------------------------------------|
D|------------------------------------------------------------|
A|------------------------------------------------------------|
E|2-----------------------------------------------------------|

2:10

G|----------------------------------------------------------------|
D|------------------------------------2---------------4---2-------|
A|2---4---2---0-------5---4---2---0-------5---4---2-----------5---|
E|----------------3-----------------------------------------------|

G|----------------------------------------6---3---4---1-----------|
D|--------------------------------------------------------3---0---|
A|4---------------------------------------------------------------|
E|----3---2---------------2---------------------------------------|

G|----------------------------------------------------------------|
D|----------------------------------------------------------------|
A|----------------------------------------------------------------|
E|2-------2---2---2-----------------------------------------------|

2:25

G|----------------------------------------------------------------|
D|----------------------------------------------------------------|
A|2-------2-------2-----------0---2-------2-------2-----------0---|
E|------------------------2-------------------------------2-------|

G|----------------------------------------------------------------|
D|----------------------------------------------------------------|
A|2-------2-----2---2---------0---2-------2-----2---2---------0---|
E|--------------------2---2---------------------------2---2-------|

G|----------------------------------------------------------------|
D|--------------------------------------/-9-------------------7---|
A|2-------2-----2-------------0---2-------------------------------|
E|--------------------2---2---------------------------------------|

G|----------------------------------------------------------------|
D|9-------9-----9-------------7---9-----9-----9-------9---9-7---7-|
A|--------------------9-----9---------------------------------9---|
E|----------------------------------------------------------------|

G|----------------------------------------------------------------|
D|9-------9-------9---9-------7---9-------9-------9---9-------7---|
A|--------------9---9-----9-------------9-------9---9-----9-------|
E|----------------------------------------------------------------|

G|----------------------------------------------------------------|
D|9-------9-------9---9-------7---9-------9-------9---9-------7---|
A|------9-------9---9-----9-------------9-------9---------9-------|
E|----------------------------------------------------------------|

G|----------------------------------------------------------------|
D|9-------9-------9---9-------7---9-------9-------9---9-------7---|
A|------9-------9---------9-------------9-------9---9-----9-------|
E|----------------------------------------------------------------|

G|----------|
D|9---------| fades out here.
A|------9---|
E|--------7-|

            
            
Suggest correction
Creating personal tab
Creating personal tab
You can edit any tab online and save it as your Personal.

You can edit, replace or remove any tab part or add personal notes – all changes will be seen only by you.

Personal tabs can be accessed anytime from any device, even offline.
Learn more »
Give kudos to tab author, rate the tab!
1 2 3 4 5
comments
print report bad tab
guest
You may want to rate the tab now too:
select rating
Wanna post a correction for this tab? Suggest correction