Oops, an error
Loading. Please wait.

Big Friday Tab

2,429 views 1 this week
no commentswrite comment
1 2 3 4 5
1 last vote to show rating
add to favorites
launch autoscroll
font size
0
reset
how to read this tab
guitar tuner
Autoscroll
slow
fast
+/-
esc
set tempo
stop
Help us to improve Ultimate-Guitar.com Take our survey!
×
Author
-------------------------------------------------------------------------------
                             BIG FRIDAY - Bonnie 'Prince' Billy
-------------------------------------------------------------------------------
Tabbed by: teshue

Tuning: Standard

I haven't seen any tabs of this song anywhere on the web, so I figured I would
try and do one myself. I think it turned out decent. I realize it isn't perfection
but I think I got the basic feel of the song down. If anyone has any suggestions
feel free to comment.

  Main part repeated throught song
e|------0-----0-----------0-|------0-----0-------0--------|
B|-9h10---0-9-------7---9---|-9h10---0-9-------7----------|
G|--------------6/8---8-----|--------------6-8------------|
D|--------------------------|-----------------------------|
A|--------------------------|-----------------------------|
E|--------------------------|-----------------------------|

e|------0-----0-------------------|------0-----0-------0--|
B|-9h10---0-9-------7-------------|-9h10---0-9-------7----|
G|--------------6/8---8--9-8------|--------------6-8------|
D|---------------------------11-9-|-----------------------|
A|--------------------------------|-----------------------|
E|--------------------------------|-----------------------|

   and if i     had ..  x2
  this is what  it ...       to have such a woman with me
e|------------------------|--------------------------------|
B|-9-10--12----9--10---9--|--9--10--12--9--10--9-----10--9-|
G|-9--9---9----9---9---9--|--9---9---9--9---9--9--9--11--9-|
D|------------------------|-----------------------9--------|
A|------------------------|--------------------------------|
E|------------------------|--------------------------------|


| /  slide up
| \  slide down
| h  hammer-on
| p  pull-off
| ~  vibrato
| +  harmonic
| x  Mute note
===============================================================================
Suggest correction
Give kudos to tab author, rate the tab!
1 2 3 4 5
comments
print report bad tab
guest
You may want to rate the tab now too:
select rating
Wanna post a correction for this tab? Suggest correction