Oops, an error
Loading. Please wait.

Blood Embrace Tab

2,782 views 3 this week
1 commentread comment
1 2 3 4 5
2 more votes to show rating
add to favorites
launch autoscroll
font size
0
reset
how to read this tab
guitar tuner
Autoscroll
slow
fast
+/-
esc
set tempo
stop
Help us to improve Ultimate-Guitar.com Take our survey!
×
Difficulty
novice
hey fellow american, here is a rudimentary tab for "blood embrace".  there is basically 
riff in the whole song, with variations.

basic guitar part for

blood embrace

by matt sweeney and bonnie "prince" billy

e|--------3-0-2---0---------------|
B|--------------3---0-3---0-------|
G|----------------------2---2-0-2-|
D|--------------------------------|
A|--------------------------------|
E|0---0---------------------------|

e|--------3-0-2---0---------------|
B|--------------3---0-3---0-------|
G|----------------------2---2-0---|
D|------------------------------2-|
A|0---0---------------------------|
E|--------------------------------|

repeate and variate for seven and a half minutes.

www.bonnieprincebilly.com
Suggest correction
Give kudos to tab author, rate the tab!
1 2 3 4 5
comments
print report bad tab
1 comment total.
0 reply
AnrBjotk 40 Sep 12, 2016 10:14 AM

I always thought is was

e:----------------------|
B:-8--7-----------------|
G:--9--7--9--7----------|
D:---------9--7-7h9p7---|
A:----------------------|
E:----------------------|

but this works good too.

guest
You may want to rate the tab now too:
select rating
Wanna post a correction for this tab? Suggest correction