Oops, an error
Loading. Please wait.

Time To Be Clear Tab

605 views 3 this week
no commentswrite comment
1 2 3 4 5
please rate
add to favorites
launch autoscroll
font size
0
reset
how to read this tab
guitar tuner
Autoscroll
slow
fast
+/-
esc
set tempo
stop
Help us to improve Ultimate-Guitar.com Take our survey!
×
Contributor
Difficulty
intermediate
                                                                                        
It's time to be clear,            got news of his
e------------------------------------------------------------------------------------|
b------------------------------------------------------------------------------------|
g-----0---0-------0---0-------0---0-------0---0-------0---0-------0---0-------0---0--|
d---2---2---2---2---2---2---2---2---2---2---2---2---2---2---2---2---2---2---2---2----|
a-3------------------------3-----------------------3------------------------3--------|
e--------------3-----------------------3-----------------------3---------------------|

    passing, And I'm stuck, singing here                    I want to be the wallpaper
e------------------------------------------------------------------------------------|
b--------------------6---6--------6---6-------6---6-------6---6-------6---6----------|
g-------0---0------------------------------------------------------------------------|
d-2---2---2---2----7---7---7---7---7---7---7---7---7---7---7---7---7---7---7---------|
a----------------5------------5-----------5-----------5-----------5------------------|
e---3--------------------------------------------------------------------------------|

    and swing from chandelier                                                Something to show
e------------------------------------------------------------------------------------|
b------------------------------------------------------6---6-------6---6-------6-----|
g-----0---0-------0---0-------0---0-------0---0--------------------------------------|
d---2---2---2---2---2---2---2---2---2---2---2---2---7---7---7---7---7---7---7---7----|
a-3------------------------3-----------------------5-----------5------------5--------|
e--------------3------------------------3--------------------------------------------|

                       that I know                                                       
It's time to be clear
e------------------------------------------------------------------------------------|
b-6-------6---6-------6---6-------6---6-------6---6-------6---6----------------------|
g----------------------------------------------------------------------0---0---------|
d---7---7---7---7---7---7---7---7---7---7---7---7---7---7---7---7---2---2---2---2----|
a-----5------------8-----------8-----------8-----------8-----------3-----------------|
e-------------------------------------------------------------------------------3----|

                                      I can handle what's given, I can make mystery mine
e------------------------------------------------------------------------------------|
b--------------------------------6---6-------6---6-------5---5-------5---5-----------|
g-0---0-------0---0------------------------------------------------------------------|
d---2---2---2---2---2----------7---7---7---7---7---7---6---6---6---6---6---6---------|
a----------3-----------3-5-7-8------------8-----------7-----------7------------------|
e------------------------------------------------------------------------------------|

    And sing it with feeling, with                       rhythm and rhyme
e------------------------------------------------------------------------------------|
b-----4---4-------4---4-------3---3-------3---3--------------------------------------|
g------------------------------------------------------0---0-------0---0-------0-----|
d---6---6---6---6---6---6---5---5---5---5---5---5---2---2---2---2---2---2---2---2----|
a-6-----------6-----------5------------5-----------3------------------------3--------|
e---------------------------------------------------------------3--------------------|

                   I can make you all marvel at,   this is your time              And 
holler,      It's time to be
e------------------------------------------------------------------------------------|
b---------------6---6-------6---6-------5---5-------5---5-------3---3--------3---3---|
g-0----------------------------------------------------------------------------------|
d---2---------7---7---7---7---7---7---6---6---6---6---6---6---5---5---5---5---5------|
a-----3-5-7-8-----------8-----------7-----------7------------5-----------5-----------|
e------------------------------------------------------------------------------------|

       clear                                                                 And stop 
all the moaning,   and emoting of
e------------------------------------------------------------------------------------|
b--------------------------------------------------6---6-------6---6-------5---5-----|
g-------0---0-------0---0-------0---0------------------------------------------------|
d-5---2---2---2---2---2---2---2---2---2---------7---7---7---7---7---7---6---6---6----|
a---3------------------------3-----------3-5-7-8-----------8-----------7-------------|
e----------------3-------------------------------------------------------------------|

    fate                 God isn't listening,              or else it's too late
e------------------------------------------------------------------------------------|
b-----5---5--------3---3-------3---3------1---1-------1---1--------------------------|
g----------------------------------------2---2---2---2---2---2-----------------------|
d---6---6---6---5---5---5---5---5---5------------------------------------------------|
a-7-----------5------------5-----------3-----------3---------------------------------|
e------------------------------------------------------------------------------------|

    This is your song, and your song, it is great          We sing,        it's time to be
e------------------------------------------------------------------------------------|
b-----1---1-------1---1--------5---5------5---5--------3---3-------3---3-------------|
g------------------------------------------------------------------------------------|
d---2---2---2---2---2---2---6---6---6---6---6---6---5---5---5---5---5---5------------|
a-3-----------3------------7-----------7-----------5-----------5---------------------|
e------------------------------------------------------------------------------------|

    clear                                                                       (bridge)
e------------------------------------------------------------------------------------|
b------------------------------------------------6---6-------6---6-------6---6-------|
g-----0---0-------0---0-------0---0--------------------------------------------------|
d---2---2---2---2---2---2---2---2---2---------7---7---7---7---7---7---7---7---7------|
a-3------------------------3-----------3-5-7-8-----------8-----------8---------------|
e-------------3----------------------------------------------------------------------|


e------------------------------------------------------------------------------------|
b-----6---6-------3---3-------3---3-------3---3-------3---3-------6---6-------6---6--|
g------------------------------------------------------------------------------------|
d---7---7---7---5---5---5---5---5---5---5---5---5---5---5---5---7---7---7---7---7----|
a-8-----------5------------5-----------5-----------5-----------8-----------8---------|
e------------------------------------------------------------------------------------|


e------------------------------------------------------------------------------------|
b-------6---6-------6---6-------3---3--------3---3------3---3--------3---3-----------|
g------------------------------------------------------------------------------------|
d-7---7---7---7---7---7---7---5---5---5---5---5---5---5---5---5---5---5---5----------|
a---8-----------8------------5-----------5-----------5-----------5-------------------|
e------------------------------------------------------------------------------------|


e------------------------------------------------------------------------------------|
b------------------------------------------------------------------------------------|
g-----3---3-------3---3-------3---3-------3---3--------------------------------------|
d---3---3---3---3---3---3---3---3---3---3---3---3----3---3-------3---3-------3---3---|
a-1-----------1-----------1-----------1-------------3---3---3---3---3---3---3---3----|
e--------------------------------------------------1-----------1-----------1---------|

                                                                                         
                                 Time to be
e------------------------------------------------------------------------------------|
b------------------------------------------------------------------------------------|
g---------------------0---0-------0---0-------0---0-------0---0-------0---0----------|
d-------3---3-------2---2---2---2---2---2---2---2---2---2---2---2---2---2---2--------|
a-3---3---3---3---3------------------------3-----------------------3-----------------|
e---1--------------------------3-----------------------3-----------------------------|

    clear                                                                           And 
leave our old world
e------------------------------------------------------------------------------------|
b------------------------------------------------------------------------------------|
g-----0---0-------0---0-------0---0-------0---0-------0---0---------3---3-------3----|
d---2---2---2---2---2---2---2---2---2---2---2---2---2---2---2----3---3---3---3---3---|
a--------------3-----------------------3------------------------1------------1-------|
e-3------------------------3-----------------------3---------------------------------|

                                                 And build             new stories here  
                  Lover, oh
e------------------------------------------------------------------------------------|
b------------------------------------------------------------------------------------|
g-3-------3---3-------3---3-------0---0-------0---0-------0---0-------0---0----------|
d---3---3---3---3---3---3---3---2---2---2---2---2---2---2---2---2---2---2---2--------|
a-----1-----------1------------3-----------------------3-----------3-----------------|
e------------------------------------------3-----------------------------------------|

      lover, please buy me a          beer                           And bring all your enemies
e------------------------------------------------------------------------------------|
b-------------------------------6---6-------6---6-------6---6-------6---6------------|
g-----0---0-------0---0--------------------------------------------------------------|
d---2---2---2---2---2---2----7---7---7---7---7---7---7---7---7---7---7---7-----------|
a-3-----------3-------------5-----------5-----------5-----------5--------------------|
e------------------------------------------------------------------------------------|

    here
e-----------------------------------------------------------------------------------|
b-----------------------------------------------------------------------------------|
g-----0---0-------0---0-------------------------------------------------------------|
d---2---2---2---2---2---2-----------------------------------------------------------|
a-3------------------------3--------------------------------------------------------|
e-------------3---------------------------------------------------------------------|
Suggest correction What's this?
You can suggest a correction to this tab. Community and Mods will review your correction and vote to approve or reject it.
comments
We did not receive enough feedback on this tab! Please rate:
print report bad tab
1 2 3 4 5
I want to post or [tab]
guest
You may want to rate the tab now too:
select rating
Please do not post tabs as comments. Select "correction" instead!