Oops, an error
Loading. Please wait.

Animals Bass Tab

1,877 views 18 this week
no commentswrite comment
1 2 3 4 5
excellent!
x 6
add to favorites
launch autoscroll
font size
0
reset
guitar tuner
Tab Pro tools
  • play this tab
  • loop segment
  • change instrument
  • show fretboard
  • metronome
×
Best way to learn
"Animals"
Autoscroll
slow
fast
+/-
esc
set tempo
stop
Contributor
-------------------------------------------------------------------------------
                              ANIMALS - Bonobo
-------------------------------------------------------------------------------
Tabbed by: Alef de Boer
E-mail: alef_@live.nl

Tuning: EADG

Main riff, starts at 0:43
G|---------------------------|
D|----9------9------10-9---9-|
A|7-9---97-9------10-----9--9|
E|-------------78------------|

The next riff starts at 2:12, working to a breakdown 
G|--------------------------------|
D|--------9---7-------------------|
A|7---10----------7---------------|
E|--------------------7---10--5---|

The breakdown starts at 3:27
G|--------------------------------|
D|--------9---7-------------------|
A|7---10----------7---------------|
E|--------------------10--8---7---|

The riff below commences at 4:24, which is repeated until the end of the song
G|---------------------------------------------------|
D|------109---9-----------------------10~------------|
A|7--------109-7-------------7--9--10----------------|
E|0*------------8-----7------------------8-----7-----|
*The low E is not played every time, just play it once every 2 repetitions. 

Enjoy!
===============================================================================
comments
print report bad tab
I want to post or [tab]
guest
You may want to rate the tab now too:
select rating
Please do not post tabs as comments. Select "correction" instead!