Oops, an error
Loading. Please wait.

Break Apart intro tab

by Bonobo
520 views 12 this week
1 commentread comment
1 2 3 4 5
3 more votes to show rating
add to favorites
×
Save as Personal and add changes to this tab that will be seen only by you. Learn more ›
×
You can save this tab as Personal to edit and correct it or add notes. All changes will be seen only by you. Learn more »
launch autoscroll
font size
0
reset
how to read this tab
guitar tuner
edit
Autoscroll
slow
fast
+/-
esc
set tempo
stop
Author
Difficulty
[Intro]
e|--5---------5--------5--------5-------5-------5---------|
B|----6---6-----6---6----6---6----6---6---6---6---6---6---|
G|------7---------7--------7--------7-------7-------7-----|
D|--------------------------------------------------------|
A|--------------------------------------------------------|
E|--------------------------------------------------------|

(You can alternative add to this )

e|--8---------8--------8--------3-------1---------|
B|----10---10---10--10---10--10---5--5---3---3----|
G|------9---------9--------9--------4------2------|
D|------------------------------------------------|
A|------------------------------------------------|
E|------------------------------------------------|

            
            
Suggest correction
Creating personal tab
Creating personal tab
You can edit any tab online and save it as your Personal.

You can edit, replace or remove any tab part or add personal notes – all changes will be seen only by you.

Personal tabs can be accessed anytime from any device, even offline.
Learn more »
Give kudos to tab author, rate the tab!
1 2 3 4 5
comments
print report bad tab
1 comment total.
0 reply
zcmoosa777 10 13 hours ago

Do the rest of the song please!

guest
You may want to rate the tab now too:
select rating
Wanna post a correction for this tab? Suggest correction