Oops, an error
Loading. Please wait.

Stay The Same tab

by Bonobo
9,531 views 39 this week
1 commentread comment
1 2 3 4 5
x 7
add to favorites
×
Save as Personal and add changes to this tab that will be seen only by you. Learn more ›
×
You can save this tab as Personal to edit and correct it or add notes. All changes will be seen only by you. Learn more »
launch autoscroll
font size
0
reset
how to read this tab
guitar tuner
edit
Autoscroll
slow
fast
+/-
esc
set tempo
stop
Author
Difficulty
-------------------------------------------------------------------------------
                             STAY THE SAME - Bonobo ft. Andreya Triana
-------------------------------------------------------------------------------
Tabbed by: hazzav

Tuning: Standard
Capo: Fret 4
Notes relative to capo.

Great song, here's the main riff.  There are other guitar parts, but they are played separately.  
This is how it is played live, but I prefer to play it as shown below (ALTERNATIVE RIFF).  Enjoy!

MAIN RIFF (Played throughout)

e|-----0--------------------------------------|
B|----------------1----------0----------3-----|
G|--2-----2----4-----4------------------------|
D|------------------------2-----2----5-----5--|
A|--------------------------------------------|
E|--------------------------------------------|

e|-----0--------------------------------------|
B|----------------1----------0-------3--0-----|
G|--2-----2----4-----4------------------------|
D|------------------------2-----2----5-----2--|
A|--------------------------------------------|
E|--------------------------------------------|


ALTERNATIVE RIFF (NO CAPO)

e|-------------------------------------------------------|
B|-------------------------------------------------------|
G|------13------------9----------------------------------|
D|--11------11----13-----13--------13------------16------|
A|-----------------------------11------11----14------14--|
E|-------------------------------------------------------|



e|-------------------------------------------------------|
B|-------------------------------------------------------|
G|------13------------9----------------------------------|
D|--11------11----13-----13--------13--------16--13------|
A|-----------------------------11------11----14----------|
E|---------------------------------------------------16--|

OR Where 

e|-------------|
B|-------------|
G|------9------|
D|--13-----13--|
A|-------------|
E|-------------|

is too far to reach, try this:

e|--------------------------------------------------------|
B|--------------------------------------------------------|
G|------13------------------------------------------------|
D|--11------11----13--14--13--------13------------16------|
A|------------------------------11------11----14------14--|
E|--------------------------------------------------------|



e|--------------------------------------------------------|
B|--------------------------------------------------------|
G|------13------------------------------------------------|
D|--11------11----13--14--13--------13--------16--13------|
A|------------------------------11------11----14----------|
E|----------------------------------------------------16--|
Suggest correction
Creating personal tab
Creating personal tab
You can edit any tab online and save it as your Personal.

You can edit, replace or remove any tab part or add personal notes – all changes will be seen only by you.

Personal tabs can be accessed anytime from any device, even offline.
Learn more »
comments
print report bad tab
1 comment total.
0 reply
jules.chilcott 10 Dec 02, 2013 08:47 PM

great tab, true to actual song THANKS!! :)

guest
You may want to rate the tab now too:
select rating
Wanna post a correction for this tab? Suggest correction