Oops, an error
Loading. Please wait.

We Could Forever Bass Tab

1,141 views 3 this week
no commentswrite comment
1 2 3 4 5
1 last vote to show rating
add to favorites
launch autoscroll
font size
0
reset
guitar tuner
Autoscroll
slow
fast
+/-
esc
set tempo
stop
Help us to improve Ultimate-Guitar.com Take our survey!
×
Author
-------------------------------------------------------------------------------
                        WE COULD FOREVER - Bonobo
-------------------------------------------------------------------------------
Tabbed by: Alef de Boer
E-mail: alef_@live.nl

Tuning:EADG

The bass starts at 0:23, repeat the following riff
G|----------------------------------------------------------------|
D|----------------------------------------------------------------|
A|----------------10-10-10------------------------10-10-10--------|
E|8--8--8-8--8--8---------11-11-118--8--8-8--8--8---------11-11-11|

The second riff starts at 1:26, repeat again
G|---------------------------------------------|
D|--------8--------8---12----12--------------12|
A|--10--10---10--10--10--1010--1013--13----13--|
E|8---88----8--88------------------11--1111----|

The 3rd riff starts at about 1:59, once again keep repeating
G|-----------------------------------|
D|-----------------------------------|
A|10-10-1010-10-108-8----------------|
E|-------------------10-8--8-8--8--8-|

The last riff of this song starts at 2:32 and goes like this:
G|-----------------------------------|
D|-----------------------------------|
A|10-10-1010-10-108-8--------------8-|
E|-------------------8--8--8-8--8----|

Enjoy!
===============================================================================
Suggest correction
Give kudos to tab author, rate the tab!
1 2 3 4 5
comments
print report bad tab
guest
You may want to rate the tab now too:
select rating
Wanna post a correction for this tab? Suggest correction