Oops, an error
Loading. Please wait.

Avalanche Tab

229 views 9 this week
1 commentread comment
1 2 3 4 5
x 4
add to favorites
launch autoscroll
font size
0
reset
how to read this tab
guitar tuner
×
Best way to learn
"Avalanche"
Autoscroll
slow
fast
+/-
esc
set tempo
stop
Author
Difficulty
About this tab version
Had some time to figure out how to play this fabulous song, im sure this gonna help the people. Was this info helpful? Yes No
[Intro]

Rhytm Guitar
     A7M     C7M
e|------------3-------|
B|---5--------5-------|
G|---6--------4-------|
D|---6--------5-------|
A|---x--------3-------|
E|---5----------------|
 
 Solo guitar 
     A              C    
e|---5--------------8-------|
B|---5-[arpeggios]--8-------|
G|---6--------------9-------|
D|---7--------------10------|
A|--------------------------|
E|--------------------------|


[Verse]
 The both guitars does the same sequence during the verses, it goes like this
e|-------------3--3--3-|
B|---6/5--5-5--5--5--5-|
G|---7/6--6-6--4--4--4-|
D|---7/6--6-6--5--5--5-| 
A|---x-x--x-x--3--3--3-|
E|---6/5--5-5----------|
 
[Main riff] 

e|----------------------------------------------------------------------------------------------------------|
B|----------------------------------------------------------------------------------------------------------|
G|---------------12-12---12h14-12-11-12-12------------------12-12---12h14-12-11-12-11-----------------------|
D|-12-14-12-14-12-----------------------------12-14-12-14-12---------------------------14-16-14-12-14-12-11-|
A|----------------------------------------------------------------------------------------------------------|
E|----------------------------------------------------------------------------------------------------------|


[Solo]

e|---------------------------------------------------------------------------|
B|---------------------------------------------------------------------------|
G|---------------------------------------------------------------------------| [2x]
D|-11-12-11/7-11-12-14-16-11h12p11/7--11~------------------------------------|
A|---------------------------------------------------------------------------|
E|---------------------------------------------------------------------------|

   Ends with A7M
e|-----------------|
B|--5--------------|
G|--6--------------|
D|--6--------------|
A|--x--------------|
E|--5--------------|


************************************

| x   Dead note
| h   Hammer-on
| p   Pull-off
| /   Slide up
| ~   Vibrato

************************************
Suggest correction
comments
print report bad tab
1 comment total.
0 reply
acamhi 20 Nov 25, 2016 11:10 PM

Great job!! amazing song!!

guest
You may want to rate the tab now too:
select rating
Wanna post a correction for this tab? Suggest correction