Oops, an error
Loading. Please wait.

Somebody To Love Bass Tab

1,155 views 1 this week
no commentswrite comment
1 2 3 4 5
please rate
add to favorites
launch autoscroll
font size
0
reset
guitar tuner
Autoscroll
slow
fast
+/-
esc
set tempo
stop
Help us to improve Ultimate-Guitar.com Take our survey!
×
Author
Song: Somebody to love
Band: The Boogie Pimps
Tabbed by: cianormo

There are a few variations on this but nothing too hard to figure out on your own. Cool song!

Verse:
G|--------------------------------|
D|--------------------------------|
A|-----------------------------0-2|
E|-2-2-2-0-2-2-2-0-2-2-2-0-2-2----|

Chorus
G|--------------------------------|
D|--------------------------------|
A|-----------------------------0-2|
E|-5-5-5-0-4-4-4-0-2-2-2-0-2-2----|

Enjoy!
Suggest correction
Give kudos to tab author, rate the tab!
1 2 3 4 5
comments
print report bad tab
guest
You may want to rate the tab now too:
select rating
Wanna post a correction for this tab? Suggest correction