Oops, an error
Loading. Please wait.

The Water Lets You In tab

1,912 views 33 this week
1 commentread comment
1 2 3 4 5
x 8
add to favorites
×
Save as Personal and add changes to this tab that will be seen only by you. Learn more ›
×
You can save this tab as Personal to edit and correct it or add notes. All changes will be seen only by you. Learn more »
launch autoscroll
font size
0
reset
how to read this tab
guitar tuner
edit
Autoscroll
slow
fast
+/-
esc
set tempo
stop
The Water Lets You In – Book of Fears
Tabbed by: jakevogel
Tuning: Drop D

As the song progresses the accompanying instrumentation obscures whether to play the higher D or lower D.  
Mostly it's the higher D but I tabbed it as well as I can hear it.  Play around with it and play it
however it sounds best to you.  Have fun...and watch "Bloodline" if you haven't already - it's awesome. ;-)

[Intro]

e|-----------------------------------|
B|------3-------3-------3-------3----|
G|----2---2---2---2---2---2---2---2--|
D|--0-------0-------0-------0--------| x2
A|-----------------------------------|
D|-----------------------------------|


[Verse]

e|-------------------------------------------------------|----------------------------------|
B|------3--------3--------3--------3--------3--------3---|-----3-------3-------3-------3----|
G|----2---2----2---2----5---5----5---5----4---4----4---4-|---2---2---2---2---2---2---2---2--|
D|--0--------0--------0--------0--------0--------0-------|-0-------0-------0-------0--------|
A|-------------------------------------------------------|----------------------------------|
D|-------------------------------------------------------|----------------------------------|
  Young man goes out looking  for the diamond   in the    sea

e|-------------------------------------------------------|----------------------------------|
B|------3--------3--------3--------3--------3--------3---|-----3-------3-------3-------3----|
G|----2---2----2---2----5---5----5---5----4---4----4---4-|---2---2---2---2---2---2---2---2--|
D|--0--------0--------0--------0--------0--------0-------|-0-------0-------0-------0--------|
A|-------------------------------------------------------|----------------------------------|
D|-------------------------------------------------------|----------------------------------|
   Old man  rows his boat to shore and falls on twisted   knees


[Chorus]

e|----------------------------------------------|----------------------------------|
B|---------------3--------3--------3--------3---|-----3-------3-------3-------3----|
G|-------------0---0----0---0----0---0----0---0-|---2---2---2---2---2---2---2---2--|
D|----------------------------------------------|---------0-------0-------0--------|
A|-----------3--------3--------2--------2-------|----------------------------------|
D|----------------------------------------------|-0--------------------------------|
  And you'll drown before the water    lets you   in

e|-------------------------------------------------|----------------------------------|
B|-----------------3---------3--------3--------3---|-----3-------3-------3-------3----|
G|---------------0---0-----0---0----0---0----0---0-|---2---2---2---2---2---2---2---2--|
D|-----------------------2-------------------------|---------0---------------0--------|
A|-------------3--------3---------2--------2-------|----------------------------------|
D|-------=-----------------------------------------|-0---------------0----------------|
  Yeah you'll drown  before  the water    lets you   in


[Verse]

e|------------------------------------------------------------|----------------------------------|
B|---------3--------3--------3--------3----------3--------3---|-----3-------3-------3-------3----|
G|-------2---2----2---2----5---5----5---5------4---4----4---4-|---2---2---2---2---2---2---2---2--|
D|-----0--------0--------0--------0----------0--------0-------|-0-------0-------0-------0--------|
A|------------------------------------------------------------|----------------------------------|
D|------------------------------------------------------------|----------------------------------|
  The feeling that I   fear the most is the one that follows    me

e|---------------------------------------------------------|----------------------------------|
B|------3--------3--------3--------3----------3--------3---|-----3-------3-------3-------3----|
G|----2---2----2---2----5---5----5---5------4---4----4---4-|---2---2---2---2---2---2---2---2--|
D|--0--------0--------0--------0----------0--------0-------|-0-------0-------0-------0--------|
A|---------------------------------------------------------|----------------------------------|
D|---------------------------------------------------------|----------------------------------|
   All    across the starry   coast from sea to   dying     sea


[Chorus]

e|------------------------------------------------|----------------------------------|
B|-----------------3--------3--------3--------3---|-----3-------3-------3-------3----|
G|---------------0---0----0---0----0---0----0---0-|---2---2---2---2---2---2---2---2--|
D|------------------------------------------------|---------0---------------0--------|
A|-------------3--------3--------2--------2-------|----------------------------------|
D|------------------------------------------------|-0---------------0----------------|
  Says you'll drown  before the water   lets you    in

e|-------------------------------------------------|----------------------------------|
B|-----------------3---------3--------3--------3---|-----3-------3-------3-------3----|
G|---------------0---0-----0---0----0---0----0---0-|---5---5---5---5---4---4---4---4--|
D|-----------------------2-------------------------|-0-------0-------0-------0--------|
A|-------------3--------3---------2--------2-------|----------------------------------|
D|-------------------------------------------------|----------------------------------|
  Yeah you'll drown before  the water    lets you    in


[Instrumental]

e|----------------------------------------------------|
B|------3-------3-------3-------3--------3-------3----|
G|----2---2---2---2---0---0---0---0----0---0---0---0--|
D|--0-------0-----------------------------------------|
A|------------------3-------3--------2-------2--------|
D|----------------------------------------------------|


[Verse]

e|------------------------------------------------------------|----------------------------------|
B|---------3--------3--------3--------3----------3--------3---|-----3-------3-------3-------3----|
G|-------2---2----2---2----5---5----5---5------4---4----4---4-|---2---2---2---2---2---2---2---2--|
D|--------------0--------0--------0----------0--------0-------|---------0---------------0--------|
A|------------------------------------------------------------|----------------------------------|
D|-----0------------------------------------------------------|-0---------------0----------------|
   I think the thing  I wanted  most was just never  meant to   be

e|------------------------------------------------------------|----------------------------------|
B|---------3--------3--------3--------3----------3--------3---|-----3-------3-------3-------3----|
G|-------2---2----2---2----5---5----5---5------4---4----4---4-|---2---2---2---2---2---2---2---2--|
D|--------------0--------0--------0----------0--------0-------|---------0---------------0--------|
A|------------------------------------------------------------|----------------------------------|
D|-----0------------------------------------------------------|-0---------------0----------------|
   A thousand waves, a thousand ghosts their sorrows follow     me


[Chorus]

e|-----------------------------------------------|----------------------------------|
B|----------------3--------3--------3--------3---|-----3-------3-------3-------3----|
G|--------------0---0----0---0----0---0----0---0-|---2---2---2---2---2---2---2---2--|
D|-----------------------------------------------|---------0---------------0--------|
A|------------3--------3--------2--------2-------|----------------------------------|
D|-----------------------------------------------|-0---------------0----------------|
  And you'll drown  before the water   lets you    in

e|-------------------------------------------------|----------------------------------|
B|-----------------3---------3--------3--------3---|-----3-------3-------3-------3----|
G|---------------0---0-----0---0----0---0----0---0-|---0---0---0---0---0---0---0---0--|
D|-----------------------2-------------------------|----------------------------------|
A|-------------3--------3---------2--------2-------|-3-------3-------2-------2--------|
D|-------------------------------------------------|----------------------------------|
  Yeah you'll drown  before  the water    lets you   in....


[Outro]

e|-------------------------------------|-----------------------------------|
B|------3--------3--------3--------3---|------3-------3-------3-------3----|
G|----2---2----2---2----0---0----0---0-|----0---0---0---0---0---0---0---0--|
D|-------------------------------------|-----------------------------------|
A|--------------------1--------1-------|--3-------3-------2-------2--------|
D|--0--------0-------------------------|-----------------------------------|
                    ooooohhhhh.....       yaaaaaahhhhh.....

e|-------------------------------------|-----------------------------------|
B|------3--------3--------3--------3---|------3-------3-------3-------3----|
G|----2---2----2---2----0---0----0---0-|----0---0---0---0---0---0---0---0--|
D|-------------------------------------|-----------------------------------|
A|--------------------1--------1-------|--3-------3-------2-------2--------|
D|--0--------0-------------------------|-----------------------------------|
    ....aaaaaahhhhhh...

e|-------------------------------------|-----------------------------------|
B|------3--------3--------3--------3---|------3-------3-------3-------3----|
G|----2---2----2---2----0---0----0---0-|----0---0---0---0---0---0---0---0--|
D|-------------------------------------|-----------------------------------|
A|--------------------1--------1-------|--3-------3-------2-------2--------|
D|--0--------0-------------------------|-----------------------------------|
   whooooohhhh....    yaaaaaaahhhhh.....

e|------------------------|
B|------3--------3-----3--|
G|----0---0----0---0---0--|
D|---------------------0--|
A|--1--------1---------0--|
D|---------------------0--| 

            
            
Suggest correction
Creating personal tab
Creating personal tab
You can edit any tab online and save it as your Personal.

You can edit, replace or remove any tab part or add personal notes – all changes will be seen only by you.

Personal tabs can be accessed anytime from any device, even offline.
Learn more »
comments
print report bad tab
1 comment total.
0 reply
von Layzonfon 213 Feb 08, 2017 06:06 AM

Good job. If I'd looked here first I could have saved myself some time, but also deprived myself of some fun. :)

guest
You may want to rate the tab now too:
select rating
Wanna post a correction for this tab? Suggest correction