Oops, an error
Loading. Please wait.

Green Onions bass

44,822 views 63 this week
8 commentsread comments
1 2 3 4 5
x 39
add to favorites
×
Save as Personal and add changes to this tab that will be seen only by you. Learn more ›
×
You can save this tab as Personal to edit and correct it or add notes. All changes will be seen only by you. Learn more »
launch autoscroll
font size
0
reset
guitar tuner
backing track
0:00
0:00
edit
Autoscroll
slow
fast
+/-
esc
set tempo
stop
Author
Unregistered
Green Onions - Booker T. And The MG's

repeat this 12 bar blues pattern throughout the song.

   (x4)      (x2)       (x2)                        (x2)
G|----------|----------|----------|--------------------|----------|
D|----------|----------|----------|--------------------|----------|
A|----------|1-1-1-4-6-|----------|3-3-3-6-8-1-1-1-4-6-|----------|
E|1-1-1-4-6-|----------|1-1-1-4-6-|--------------------|1-1-1-4-6-|

            
            
Suggest correction
Creating personal tab
Creating personal tab
You can edit any tab online and save it as your Personal.

You can edit, replace or remove any tab part or add personal notes – all changes will be seen only by you.

Personal tabs can be accessed anytime from any device, even offline.
Learn more »
comments
print report bad tab
8 comments total. Showing first comments.
0 reply
richeylikemusic 10 Jun 21, 2008 10:22 AM

Good tab, spot on.

+8 reply
ReDRuM86 10 Apr 14, 2009 07:04 PM

Right notes and you can play it the way you have it fine, but just incase anyone wants to know an easier (imo) and the way Donald "Duck" Dunn plays it this is it.

(x4) (x2) (x2) (x2)
G|---------|---------|---------|------------------|---------|
D|---------|-------1-|---------|-------3--------1-|---------|
A|-------1-|1-1-14---|-------1-|3-3-36---1-1-14---|-------1-|
E|1-1-14---|---------|1-1-14---|------------------|1-1-14---|

0 reply
Samqua93 10 Jun 02, 2009 03:22 PM

so is one four, fourteen or one four

guest
Wanna post a correction for this tab? Suggest correction