Oops, an error
Loading. Please wait.

Green Onions Bass Tab

557 views 1 this week
1 commentread comment
1 2 3 4 5
worth learning
x 1
add to favorites
launch autoscroll
font size
0
reset
guitar tuner
Tab Pro tools
  • play this tab
  • loop segment
  • change instrument
  • show fretboard
  • metronome
Autoscroll
slow
fast
+/-
esc
set tempo
stop
Contributor
Difficulty
novice
This is the very best and skilled way of playing Green Onions it involves very
little movement of the fingers and can be easily adapted on!


PLAY THIS 4 TIMES          THEN THIS SECTION 2 TIMES

G:------------ >>>>      G:------------------|
D:------------ >>>>      D:-----------1------|
A:---------1-- >>>>      A:-11-1---4-----4---|
E:-11-1--4---4 >>>>      E:------------------|
(x4)                    (x2)


G:------------   >>>>   G:------------------------|
D:------------   >>>>   D:------------3-----------|
A:---------1--   >>>>   A:--33-3---7-----7--------|
E:-11-1--4---4   >>>>   E:------------------------|
(x2)                     (X1)

G:------------------------ >>>>     G:-------------------|
D:-------------1---------- >>>>     D:-------------------|
A:--11-1---4-------4------ >>>>     A:-----------1-------|
E:------------------------ >>>>     E:-11-1--4-------4---|
 (X1)                                (X2)




MY TEACHERS AT MY SCHOOL ARE FROM REVEREND AND THE MAKERS AND THIS HAS BEEN
APPROVED OF  BY THEM SO IT IS COMPLETELY PERFECT ENJOY!!!
comments
We did not receive enough feedback on this tab! Please rate:
print report bad tab
1 2 3 4 5
1 comment total.
0 reply
The Jam wrote on July 2 2014, 04:36 pm

I think the 7s should be 6s

I want to post or [tab]
guest
You may want to rate the tab now too:
select rating
Please do not post tabs as comments. Select "correction" instead!