Oops, an error
Loading. Please wait.

Angel Like Tab

1,672 views 1 this week
1 commentread comment
1 2 3 4 5
2 more votes to show rating
add to favorites
launch autoscroll
font size
0
reset
how to read this tab
guitar tuner
Autoscroll
slow
fast
+/-
esc
set tempo
stop
Help us to improve Ultimate-Guitar.com Take our survey!
×
Author
Difficulty
This song is in standard!

Boondox
Angel like


[|----------------------------------------------------|]
[|----------------------------------------------------|]
[|-------------------IMPORTANT------------------------|]
[|----------------------------------------------------|]
[|----------------------------------------------------|]

e|--0---0----------------------------------------------|
B|--3P0-3P0--------------------------------------------|
G|--3P0-3P0--------------------------------------------|
D|--3P0-3P0--------------------------------------------|
A|--0---0----------------------------------------------|
E|-----------------------------------------------------|
   ON ALL A CHORDS YOU MUST PULL OFF EACH TIME!



Intro: G,A,G,A


She was new in town. 
G           A        G
She was a treasure that I found.
          A                       G

She liked to swim at night.
    A                G
And she was angel like. 
            C
When she swam under the moonlight.
                    A             G        A         G
She was angel like.
        C
When she swam under the moonlight.
                    A             G        A         G

She grew popular.
         A           G
There was no stop'n her. 
             A          G
She started losing sight.
      A            G
And she forgot about. 
C
Me and her in the river at night.
                           G
The girl forgot about. 
         C
Me and her in the river at night.
                           G          A       G       A

During Solo:
G,A,C,A,G,A
(4x)    (2x)

Angel Like Solo:

e|-----------------------------------------------------|
B|-----------------------------------------------------|
G|-----------------------------7---7-------------------|
D|-5-7-7/9--7-5--7-------5-7-9---9---9-7\5-5-5h7p5-----|
A|-----------------7-5------------------------------7-5|
E|-----------------------------------------------------|

e|-----------------------------------------------------|
B|-----------------------------------------------------|
G|-----------------------------------------------------|
D|-7-9--10--9------------------10-9-10-10-9-10-10-10/12|
A|------------10---/12\10-10---------------------------|
E|-----------------------------------------------------|

e|-----------------------------------------------------|
B|-----------------------------------------------------|
G|-----------------------------------------------------|
D|-9---9/7-/5---5h7p5----------------------------------|
A|--------------------7-5------------------------------|
E|-----------------------------------------------------|


 
G          A            G
   She was merciless.
             A         G
Her love was posioness.
      A           G       A
I had to take her life.
        C
And now she's angel like. 
             A         G             A      G    A
Float'n dead under the moonlight.  
         C                
She's so angel like. 
             A        G          A     G   A
Her skin all pale and white.

            C
The girl is angel like. 
                  A        G        A      G
Me and her in the river at night.
A                   G        A       G
And everything is alright
A                   G        A       G
And everything is alright.
A                   G
And everything is alright.



e|-----------------------------------------------------|
B|-----------------------------------------------------|
G|-14v~~16v~~------------------------------------------|
D|-----------------------------------------------------|
A|-----------------------------------------------------|
E|-----------------------------------------------------|
          Played in background of song.

Mcl. comeing from the juggalo guitarest. Gage ^_^ yo welcome

Suggest correction
Give kudos to tab author, rate the tab!
1 2 3 4 5
comments
print report bad tab
1 comment total.
0 reply
Juggalojake 10 Aug 10, 2011 08:43 PM

the solo was perfect thanks for the tab MCL

guest
You may want to rate the tab now too:
select rating
Wanna post a correction for this tab? Suggest correction