Oops, an error
Loading. Please wait.

Cold Cruel World Tab

version 2
version 2

Whole song

138 views 1 this week
no commentswrite comment
1 2 3 4 5
please rate
add to favorites
launch autoscroll
font size
0
reset
how to read this tab
guitar tuner
Autoscroll
slow
fast
+/-
esc
set tempo
stop
Help us to improve Ultimate-Guitar.com Take our survey!
×
Author
Difficulty
Boondox

Cold Cruel World

Intro:
e|----------------------------------------------------------------------|
B|----------------------------------------------------------------------|
G|-------0------0-------0-------0--------0-------0--------0-------0-----|
D|-----9--9---9---9---9---9---9---9/5--5---5---5---5/4--4---4---4---4/9-|
A|---7------7-------7-------7--------3-------3--------2-------2---------|
E|----------------------------------------------------------------------|
                                (First Riff 3x)*3rd time no slide to 9* 
e|--------------------------------------------------------------|
B|--------------------------------------------------------------|
G|--------------------------------------------------------------|
D|---------------------*Rest through 8 Beats*-------------------|
A|--------------------------------------------------------------|
E|--------------------------------------------------------------|

Pre - Chorus 1:
e|-----------------------------------------------------15~~~~~--|
B|----------------------------------0----------15^3/4~~~~~~~~~--|
G|--------------------------------------------------------------|
D|--9~~~~~~~~-5~~~~4~~~~---9~~~~~~------------------------------|
A|--7~~~~~~~~--------------7~~~~~~------------------------------|
E|--------------------------------------------------------------|
                                           |Clean tone|     |Distortion tone|
                                           
Chorus 1:
e|--------|----------------------------|--------|------------|
B|--------|----------------------------|--------|------------|
G|--------|----------------------------|--------|------------|
D|-Rest 2X|--5~~~~4--------------------|-Rest 2x|--5~~~~4~~~~|
A|--------|--3~~~~2--------------------|--------|------------|
E|--------|----------------------------|--------|------------|

Lead Guitar:
e|--------------------------------------------------------------|
B|-------------------------15-15^Full---------------------------|
G|--------------------------------------------------------------|
D|--------------------------------------------------------------|
A|--------------------------------------------------------------|
E|--------------------------------------------------------------|

Verse 2:
e|--------------------------------------------------------------|
B|--------------------------------------------------------------|
G|--------------------------------------------------------------|
D|----------------------*Rest 7x Beats*-------------------------|
A|--------------------------------------------------------------|
E|--------------------------------------------------------------|
Lead guitar:
e|-----14~~~-14-12~~--15-17-19~~-191919-19----------------------|
B|-16^1/2-------------------------------------------------------|
G|--------------------------------------------------------------|
D|--------------------------------------------------------------|
A|--------------------------------------------------------------|
E|--------------------------------------------------------------|
Rythem:
e|--------------------------------------------------------------|
B|--------------------------------------------------------------|
G|--------------------------------------------------------------|
D|-------------9~~~~~~~~~~~~~~~~~~~~~~~~~5~~~~~4~~~~~-----------|
A|-------------7~~~~~~~~~~~~~~~~~~~~~~~~~-----------------------|
E|--------------------------------------------------------------|
Lead guitar:
e|------12~~--15-17-19~~-19-191919------------15----------------|
B|--------------------------------------15^3/4------------------|
G|--------------------------------------------------------------|
D|--------------------------------------------------------------|
A|--------------------------------------------------------------|
E|--------------------------------------------------------------|
Rythem:
e|--------------------------------------------------------------|
B|--------------------------------------------------------------|
G|--------------------------------------------------------------|
D|-----9~~~~~~~~~~~~~~~~----------------------------------------|
A|-----7~~~~~~~~~~~~~~~~----------------------------------------|
E|--------------------------------------------------------------|

Chorus 2:
Rythem:
e|--------------------------------------------------------------|
B|--------------------------------------------------------------|
G|--------------------------------------------------------------|
D|-9~~~~~~~~~~~~~5~~~~~~~~~4~~~~~~~~----------------------------|
A|-7~~~~~~~~~~~~~3~~~~~~~~~2~~~~~~~~----------------------------|
E|--------------------------------------------------------------|
Lead:
e|-12--14-15-17-19--17-15---19--17------------------------------|
B|--------------------------------------------------------------|
G|--------------------------------------------------------------|
D|--------------------------------------------------------------|
A|--------------------------------------------------------------|
E|--------------------------------------------------------------|
Rythem:
e|--------------------------------------------------------------|
B|--------------------------------------------------------------|
G|--------------------------------------------------------------|
D|-9~~~~~~~~~~~~~5~~~~~~~~~4~~~~~~~~----------------------------|
A|-7~~~~~~~~~~~~~3~~~~~~~~~2~~~~~~~~----------------------------|
E|--------------------------------------------------------------|
Lead:
e|-12--14-15-17-19-15-19----------------------------------------|
B|--------------------------------------------------------------|
G|--------------------------------------------------------------|
D|--------------------------------------------------------------|
A|--------------------------------------------------------------|
E|--------------------------------------------------------------|
Rythem:
e|--------------------------------------------------------------|
B|--------------------------------------------------------------|
G|--------------------------------------------------------------|
D|-9~~~~~~~~~~~~~5~~~~~~~~~4~~~---------------------------------|
A|-7~~~~~~~~~~~~~3~~~~~~~~~2~~~---------------------------------|
E|--------------------------------------------------------------|


Breakdown:
Lead:
e|-19/12~~~~~~~~------------------------------------------------|
B|-------------------------------------15^full|1/2|full---------|
G|--------------------------------------------------------------|
D|--------------------------------------------------------------|
A|--------------------------------------------------------------|
E|--------------------------------------------------------------|


Outro:
Rythem:
e|--------------------------------------------------------------|
B|--------------------------------------------------------------|
G|--------------------------------------------------------------|
D|-9~~~~~~~~~~~~~5~~~~~~~~~4~~~~~~~~----------------------------|
A|-7~~~~~~~~~~~~~3~~~~~~~~~2~~~~~~~~----------------------------|
E|--------------------------------------------------------------|
Lead:
e|-12--14-15-17-19--17-15---19--17------------------------------|
B|--------------------------------------------------------------|
G|--------------------------------------------------------------|
D|--------------------------------------------------------------|
A|--------------------------------------------------------------|
E|--------------------------------------------------------------|
Rythem:
e|--------------------------------------------------------------|
B|--------------------------------------------------------------|
G|--------------------------------------------------------------|
D|-9~~~~~~~~~~~~~5~~~~~~~~~4~~~~~~~~----------------------------|
A|-7~~~~~~~~~~~~~3~~~~~~~~~2~~~~~~~~----------------------------|
E|--------------------------------------------------------------|
Lead:
e|-12--14-15-17-19-15-19----------------------------------------|
B|--------------------------------------------------------------|
G|--------------------------------------------------------------|
D|--------------------------------------------------------------|
A|--------------------------------------------------------------|
E|--------------------------------------------------------------|
Rythem:
e|--------------------------------------------------------------|
B|--------------------------------------------------------------|
G|--------------------------------------------------------------|
D|-9~~~~~~~~~~~~~5~~~~~~~~~4~~~---------------------------------|
A|-7~~~~~~~~~~~~~3~~~~~~~~~2~~~---------------------------------|
E|--------------------------------------------------------------|

                        *Play Til' End*
Suggest correction
Give kudos to tab author, rate the tab!
1 2 3 4 5
comments
print report bad tab
guest
You may want to rate the tab now too:
select rating
Wanna post a correction for this tab? Suggest correction