Oops, an error
Loading. Please wait.

I Believe Tab

698 views 1 this week
no commentswrite comment
1 2 3 4 5
please rate
add to favorites
launch autoscroll
font size
0
reset
how to read this tab
guitar tuner
Autoscroll
slow
fast
+/-
esc
set tempo
stop
Help us to improve Ultimate-Guitar.com Take our survey!
×
Difficulty
novice
http://james.wattyco.com/boothbad/

Back in 1996 this single from a collaboration between James frontman Tim Booth and Twin 
composer Angelo Badalamenti got to #25 in the UK. Here's the tab:

I BELIEVE

Chords:
E-022100
A-002220
B-224442

INTRO RIFF:

-----0-0-------0-------0----------------------------|
------4----4-2---2--0-------------------------------|
---4----------------------1/2/1---------------------|
--2-----------------------------4/2-----2--4--2-2-4-|
------------------------------------2-4-------------|
----------------------------------------------------|

-----0-0-------0-------0---------------------------|
------4----4-2---2--0------------------------------|
---4----------------------1/2/1--------------------|
--2-----------------------------4/2-----2----------|
------------------------------------2-4---4p2-2-4--|
---------------------------------------------------|

E
Hold my tongue there's nothing I can say to you
A
You tie me up with words
B
You tie me up with words
I'm so lost you say that you'd pray for me
You'd smother me with words
You'd smother me with words

E                A         E
They turned your story all around
They had you free when you were bound
They raised you up when you were down
                B
They raised you high

E         A                  B
I believe someone's watching over me
I believe in the dreams that set you free

You're so strong it really is a mystery
You give your power away
You give your power away
Why be a song when you can a symphony
Don't give your power away
Don't give your power away

I believe
I believe we are free to be chained
To be slaves, to be chained or to be free

I believe someone's watching over me
I believe in the dreams that set you free
I believe

There we are. It's not quite a simple to sing, however!

~~~~~~~~
Jack Anderton
Suggest correction
Give kudos to tab author, rate the tab!
1 2 3 4 5
comments
print report bad tab
guest
You may want to rate the tab now too:
select rating
Wanna post a correction for this tab? Suggest correction