Oops, an error
Loading. Please wait.

Carry On chords

439 views 21 this week
1 commentread comment
1 2 3 4 5
1 last vote to show rating
add to favorites
×
Save as Personal and add changes to this tab that will be seen only by you. Learn more ›
×
You can save this tab as Personal to edit and correct it or add notes. All changes will be seen only by you. Learn more »
launch autoscroll
font size
0
reset
transpose
0
reset
display chords
guitar tuner
edit
Autoscroll
slow
fast
+/-
esc
set tempo
stop
Author
Difficulty
Strumming
There is no strumming pattern for this song yet. and get +5 IQ
Carry On - Booze and Glory
92 BPM
( 2nd Solo not 100% but sounds good to me.  Improve it in the comments or. Message me the corrections)
[Intro]
e|-3-------3---------------------------------------------------|
B|-3--3-3--3--3-3----3-------3-------4------4------3-3-3-4-4-3-|     
D|-------------------3--3-3--3--3-3--3-3-3--3-3-3--3-3-3-3-3-3-| X4
A|-------------------------------------------------------------|
E|-------------------------------------------------------------|

[First Solo]
e|-----------------------------------|
B|-----------------------------------|
G|-----7-5----------7--5-7/-8\-7-----| x4
D|--5------8-7--------------------7--|
A|-------------8-6-------------------|
E|-----------------------------------|

[Verse 1]
G               Bb                   Eb               Bb
Do you remember back in the day? the years of growing up 
G                  Bb               Eb                Bb 
Having a laugh and having a say and not much to worry about 
C                                         Eb                   C
They were the times we truly believed the world belongs to us
C                            Eb                F
We had our empty streets and blood on Saturday night 

[Verse 2]
G                     Bb             Eb                 Bb
Do you remember those crazy days and all the backstreet stories 
G           Bb                   Eb                Bb
We kept our dreams alive, guards up and heads held high 
C                                Eb                        C
And only seem like yesterday you had your days of glory 
C                    Eb        F
But all your passion faded and died 

[Chorus]
Eb        F                    Bb       A G 
Where are those that shout the loudest? 
Eb             F                    Bb    A G   Eb 
They had their time - They been and gone 
Eb        F                  Bb                 G                 Eb   F 
Different reasons, different stories, different types But look at me… 
N.C.          
I still carry on! 

[Instrumental]
e|-----------------------------------|
B|-----------------------------------|
G|-----7-5----------7--5-7/-8\-7-----| x4
D|--5------8-7--------------------7--|
A|-------------8-6-------------------|
E|-----------------------------------|



[Verse 3]
G                   Bb                 Eb                 Bb
Today you think you got it sussed, you run your old man's firm 
G               Bb                Eb          Bb 
Few old records in the loft and a pair of old DM’s 
C                                Eb                        C
Enjoying 2tone cover bands while eating your Sunday roast 
C                             Eb                      F
You are a bootboy once a year at the weekend down the coast 

[Chorus]
Eb        F                    Bb       A G 
Where are those that shout the loudest? 
Eb             F                    Bb    A G   Eb 
They had their time - They been and gone 
Eb        F                  Bb                 G                 Eb   F 
Different reasons, different stories, different types But look at me… 
N.C.
I still carry on! 

[Instrumental]
e|-3-------3---------------------------------------------------|
B|-3--3-3--3--3-3----3-------3-------4------4------3-3-3-4-4-3-|     
D|-------------------3--3-3--3--3-3--3-3-3--3-3-3--3-3-3-3-3-3-| X4
A|-------------------------------------------------------------|
E|-------------------------------------------------------------|

[Solo] 
                                    let ring
e|-----------------------------------------------------------------|
B|------------------------------------------------------------10-8-|
G|----7--5-7-8-7-5-3--3-5-7-8-7-5-7---7--5-7-8-7-5-3--3-5-7-8------|
D|--5-------------------------------5------------------------------|
A|-----------------------------------------------------------------|
E|-----------------------------------------------------------------|

e|-----------------------------------------------------------------|
B|-8-8-8-------------------------------8-10-8--8-8-10-11-8---------|
G|-------10-8-7-7-7--5-7-8-8-8-7-5-7-5---------------------10-7----|
D|-----------------------------------------------------------------|
A|-----------------------------------------------------------------|
E|-----------------------------------------------------------------|

                          let ring
e|-----------------------------------------------------------------|
B|-------------------8-10-8----------------------------------------|
G|--3--8-8-8-7-5-7-5-----------------------------------------------|
D|-----------------------------------------------------------------|
A|-----------------------------------------------------------------|
E|-----------------------------------------------------------------|

[Bridge]
N.C.
Look at me today 
N.C
I'm still going strong 
N.C.
I made mistakes along the way but I'm here where I belong 

C                         Eb                  
Can you tell me mate  how long did you last? 

C
Go away! 
              Eb                 F
And take your stories from the past 

Eb        F                    Bb       A G 
Where are those that shout the loudest? 
Eb             F                    Bb    A G   Eb 
They had their time - They been and gone 
Eb                           Bb                 G                 Eb   F 
Different reasons, different stories, different types But look at me… 
Eb        F                    Bb       A G 
Where are those that shout the loudest? 
Eb             F                    Bb    A G   Eb 
They had their time - They been and gone 
Eb                           Bb                 G                 Eb   F 
Different reasons, different stories, different types But look at me… 
N.C.
I still carry on! 


G         Bb                   Eb            Bb             G
Where are those that shout the loudest?! ... Where are they now?

G              Bb                    Eb       Bb             G   
They had their time - They been and gone  ... Where are they now?

G         Bb       Eb        Bb
Different reasons, different stories, ... Where are they now?
G   Bb      Eb
But I still carry on!
Bb            G
I still carry on!

G       Bb    Eb
I still carry on!
Bb            G
I still carry on!
(repete to fade out or stop! your choice)




            
            
Suggest correction
Creating personal tab
Creating personal tab
You can edit any tab online and save it as your Personal.

You can edit, replace or remove any tab part or add personal notes – all changes will be seen only by you.

Personal tabs can be accessed anytime from any device, even offline.
Learn more »
Give kudos to tab author, rate the tab!
1 2 3 4 5
comments
print report bad tab
1 comment total.
0 reply
Roppies 3,243 Apr 30, 2017 06:18 AM

Sounds good to me bud...

guest
You may want to rate the tab now too:
select rating
Wanna post a correction for this tab? Suggest correction