Oops, an error
Loading. Please wait.

I Hope You Still Remember chords

94 views 3 this week
no commentswrite comment
1 2 3 4 5
3 more votes to show rating
add to favorites
×
Save as Personal and add changes to this tab that will be seen only by you. Learn more ›
×
You can save this tab as Personal to edit and correct it or add notes. All changes will be seen only by you. Learn more »
launch autoscroll
font size
0
reset
transpose
0
reset
display chords
guitar tuner
edit
Autoscroll
slow
fast
+/-
esc
set tempo
stop
Strumming
There is no strumming pattern for this song yet. and get +5 IQ
[Intro]
B    E    C#    F#   x2

e|--------------------------------------------------|
B|---0-0-2-4-0---7-7-4-0----0-2-4-5---5-5-4-2-0-2---|
G|--------------------------------------------------|  repeat all x2
D|--------------------------------------------------|
A|--------------------------------------------------|
E|--------------------------------------------------|

[Verse]
B                   D#
November afternoon, it was a day I won't forget
B                          D#
You said you've had enough and I said u will regret
E             F#           E                F#
But you was bold as brass, you didn't wanna know
E                        F#
You settled down and became an average joe

[Chorus]
B                             E
But I hope you still remember those crazy good old days
B                             F#
When we all stood together side by side
B                                E
And I hope you still remember us - your silly good old mates
B              F#              B
Who got you in trouble all the time

[Interlude]
e|--------------------------------------------------|
B|---0-0-2-4-0---7-7-4-0----0-2-4-5---5-5-4-2-0-2---|
G|--------------------------------------------------|  repeat all x2
D|--------------------------------------------------|
A|--------------------------------------------------|
E|--------------------------------------------------|

[Verse]
B                              D#
Now that you've changed your life- like it should be
B                            D#
Steady job, cosy house and a happy family
E                   F#                E                F#
Is this what you've been waiting for, is this what you dreamt about
E                               F#
I might see you at a gig someday if you're still allowed

[Chorus]
B                             E
But I hope you still remember those crazy good old days
B                             F#
When we all stood together side by side
B                                E
And I hope you still remember us - your silly good old mates
B              F#              B
Who got you in trouble all the time

E                              B         F#
So now you're under the thumb- she is in charge
E                              B         F#
Think, that me and the boys still have it large
E                              B         F#
We won't end up in heaven, we're going straight to hell
E                              F#
We miss you mate and hope you're doing well

[Solo]
B    E    C#    F#   x4

e|------------------------------------|
B|-----2-4-2---------2-4-5-4-2---2----|
G|---4-------4-3-1-------------4------|
D|-----------------4------------------|
A|------------------------------------|
E|------------------------------------|

e|------------------------------------|
B|-----2-4-2---------2-4-5-4-2--------|
G|---4-------4-3-1-------------4-3----|
D|-----------------4------------------|
A|------------------------------------|
E|------------------------------------|

e|--------------------------------------------------------------------------------------|
B|--12-12-14-16-14-12-14--12-12-14-16-14-12-14--12-12-14-16-14-12-14----11-12-14--------|
G|-------------------------------------------------------------------11-----------------|
D|--------------------------------------------------------------------------------------|
A|--------------------------------------------------------------------------------------|
E|--------------------------------------------------------------------------------------|

e|------------------------------------------------------|
B|--16-14-12-14--16-14-12-14--16-14-12-14--16-14-12-14--|
G|------------------------------------------------------|
D|------------------------------------------------------|
A|------------------------------------------------------|
E|------------------------------------------------------|

e|--------------------------------------|
B|--14-14h--16-17-14-12-12-12h--14-11---|
G|--------------------------------------|
D|--------------------------------------|
A|--------------------------------------|
E|--------------------------------------|

[Chorus]
B                             E
But I hope you still remember those crazy good old days
B                             F#
When we all stood together side by side
B                                E
And I hope you still remember us - your silly good old mates
B              F#              B
Who got you in trouble all the time
B                             E
But I hope you still remember those crazy good old days
B                             F#
When we all stood together side by side
B                                E
And I hope you still remember us - your silly good old mates
B              F#              B
Who got you in trouble all the time

            
            
Suggest correction
Creating personal tab
Creating personal tab
You can edit any tab online and save it as your Personal.

You can edit, replace or remove any tab part or add personal notes – all changes will be seen only by you.

Personal tabs can be accessed anytime from any device, even offline.
Learn more »
Give kudos to tab author, rate the tab!
1 2 3 4 5
comments
print report bad tab
guest
You may want to rate the tab now too:
select rating
Wanna post a correction for this tab? Suggest correction