Oops, an error
Loading. Please wait.

Yoh tab

166 views 1 this week
1 commentread comment
1 2 3 4 5
1 last vote to show rating
add to favorites
×
Save as Personal and add changes to this tab that will be seen only by you. Learn more ›
×
You can save this tab as Personal to edit and correct it or add notes. All changes will be seen only by you. Learn more »
launch autoscroll
font size
0
reset
how to read this tab
guitar tuner
edit
Autoscroll
slow
fast
+/-
esc
set tempo
stop
---------------------------------------------------------------------
                        Yoh - Borialis
---------------------------------------------------------------------

By:

e|------------------------------------------------------------------|
B|------------------------------------------------------------------|
G|------5------7-7------8------7-7----------------------------------|
D|------5-------7-------8-------7-----------------------------------|
A|--3-3----5-5------6-6----5-5--------------------------------------|
E|------------------------------------------------------------------|

Repeat this throught the whole song

            
            
Suggest correction
Creating personal tab
Creating personal tab
You can edit any tab online and save it as your Personal.

You can edit, replace or remove any tab part or add personal notes – all changes will be seen only by you.

Personal tabs can be accessed anytime from any device, even offline.
Learn more »
Give kudos to tab author, rate the tab!
1 2 3 4 5
comments
print report bad tab
1 comment total.
0 reply
wristnrazor 10 Sep 30, 2002 08:00 PM

This song was written with seventh chords throughout, with the exception being the pre-chorus section which is primarily power chords and major/minor chords. They start in VII position on a B minor 7 chord.

Main Riff:
Bm7 C#m7 DMaj7 C#m7
e --------------------------------------
B ------7-------------------7-----------
G ------7-------------------6-----------
D ------7-------------------7-----------
A --------------7---7---5-5--------7--7-
E --7-7-----9-9---9------------9-9---9--

Pre-Chorus:
F# F# E F# F# B - power chords

That's all for now. There's more on the recording but I haven't had a chance to decipher it all.

guest
You may want to rate the tab now too:
select rating
Wanna post a correction for this tab? Suggest correction