Oops, an error
Loading. Please wait.

Like Wolves Tab

1,860 views 9 this week
no commentswrite comment
1 2 3 4 5
excellent!
x 3
add to favorites
launch autoscroll
font size
0
reset
how to read this tab
guitar tuner
Tab Pro tools
  • play this tab
  • loop segment
  • change instrument
  • show fretboard
  • metronome
Autoscroll
slow
fast
+/-
esc
set tempo
stop
Contributor
1st riff 1st half
 d#|--------------------------------------------|
 a#|--------------------------------------------|
 f#|--------------------------------------------|
 c#|--------------------------------------------|
 g#|------------------------4h7---------6-------|
 d#|----------4-4-4-----3h6-----4-----4---4-----|  
 G#|2-0-2-1-4-------4h7-----------4-3-------6-4-|

1st riff 2nd half
 |------------------------------------------------------------|
 |------------------------------------------------------------|
 |------------------------------------------------------------|
 |----------------------------------------------6h9h6---------|
 |------------------------4h7-6h6h3---------5h8---------------|
 |----------4-4-4-----3h6-----------0-4-3-6---------------2-1-|
 |2-0-2-1-4-------4h7---------------------------------0-0-2-1-|

2nd riff (tremelo)
 |-------------------------------------------------------------|
 |-------------------------------------------------------------|
 |-------------------------------------------------------------|
 |-------------------------------------------------------------|
 |--------------------8------------------------------8---------|
 |--6-5-----------6-5-----6-5-6----6-5-----------6-5-----6-5-6-|
 |0-----6-6-6-6-5-------6--------0-----6-6-6-6-5-------6-------|

3rd riff (tremelo)
 |-----------------------------------------------------------|
 |-----------------------------------------------------------|
 |-----------------------------------------------------------|
 |-----------------------------------------------------------|
 |--------------6---7-------6------------------6---7---------|
 |--4-3-----4-3---4---4---4---4-3---4-3----4-3---4---4-3-2-1-|
 |0-----4-3-------------3---------0----4-3---------------2-1-|

Pre breakdown riff
 |--------------------------------------------|
 |--------------------------------------------|
 |--------------------------------------------|
 |--------------------------------------------|
 |--------------------------------------------|
 |--------8-----9-----6---8-----9---0-0-0-0---|
 |0-0-0-0---6-5---6-5---5---6-5---6-1-1-1-1---|

1st breakdown
 |-------------------------------------------------------------------|
 |-------------------------------------------------------------------|
 |-------------------------------------------------------------------|
 |-------------------------------------------------------------------|
 |-------------------------------------------------------------------|
 |0-0-0-0--0-0-0-0--0-0-0-0-0-0-0-0-0-0-0-0--0-0-0-0-0-0-0-0-0-0-0-0-|
 |0-0-0-0--0-0-0-0--0-0-0-0-0-0-0-0-0-0-0-0--0-0-0-0-1-1-1-1-1-1-1-1-|

Before Cj part                                   
 |----------|                                     
 |----------|                                
 |----------|
 |----------|
 |----------|
 |0-1-4-3-4-|
 |0-1-4-3-4-|

Cj part (strumed)
 |---------|
 |---------|
 |---------|
 |---------|
 |9-8-9-9--|
 |6-5-8-6--|
 |6-5-8-6--|

Lead under breakdown (delayed)
 |-----------------------|
 |-----------------------|
 |-----------------------|
 |9-8-9-12-8-9-8-9-8-12--|
 |-----------------------|
 |-----------------------|
 |-----------------------|

2nd breakdown
 |-------------------------------------------|
 |-------------------------------------------|
 |-------------------------------------------|
 |-------------------------------------------|
 |-------------------------------------------|
 |0-0-0-0-00-0-0-0-00-0-0-0-0-00-0-0-0-0-0-0-|
 |1-1-1-1-11-1-1-1-11-1-1-1-1-11-1-1-1-1-1-1-|

Back to 1st riff

Last riff (outro)
 |-----------------------------------------------------------------------------|
 |-----------------------------------------------------------------------------|
 |-----------------------------------------------------------------------------|
 |-----------------------------------------------------------------------------|
 |-----------------------------------------------------------------------------|
 |0--0-0-0--0--0--0-0--0-0--0-0-1-2-1-4--0--0-0-0--0--0-0-0-0--0-0--0-0-0-2-1-0|
 |1--1-1-1--1--1--1-1--1-1--1-1-1-2-1-4--1--1-1-1--1--1-1-1-1--1-1--1-1-1-2-1-1|
comments
We did not receive enough feedback on this tab! Please rate:
print report bad tab
1 2 3 4 5
I want to post or [tab]
guest
You may want to rate the tab now too:
select rating
Please do not post tabs as comments. Select "correction" instead!