Oops, an error
Loading. Please wait.
We have an official Bow Down tab made by UG professional guitarists. Check out the tab »
×
25,298 views 6 this week
7 commentsread comments
1 2 3 4 5
x 9
add to favorites
×
Save as Personal and add changes to this tab that will be seen only by you. Learn more ›
×
You can save this tab as Personal to edit and correct it or add notes. All changes will be seen only by you. Learn more »
launch autoscroll
font size
0
reset
how to read this tab
guitar tuner
edit
Autoscroll
slow
fast
+/-
esc
set tempo
stop
-------------------------------------------------------------------------------
                          BOW DOWN - Born of Osiris
-------------------------------------------------------------------------------
Tabbed by: Samir R. (headbanger703)
Email: smeerios@yahoo.com

Tuning: Drop C

Born of Osiris official band website:
http://myspace.com/bornofosiris

Here is a video of me playing this song:
http://youtube.com/watch?v=MBT1v49lcqQ

D|---------------------------------------------------------------------------|
A|---------------------------------------------------------------------------|
F|--------------------------------2*-------------------------------2*--------|
C|-321-0-321-0-321-0-320000321-0-----321-0-321-0-321-0-320000321-0-----------|
G|-321-0-321-0-321-0-320000321-0-----321-0-321-0-321-0-320000321-0-----------|
C|-321-0-321-0-321-0-320000321-0-----321-0-321-0-321-0-320000321-0-----------|
   *** * *** * *** * ********* *     *** * *** * *** * ********* *

D|---------------------------------------------------------------------------|
A|---------------------------------------------------------------------------|
F|--------------------------------2*-----------------------------------------|
C|-000-0-000-0-000-0-000000000-0-----000-0-000-0-000-0-000000000-000---------|
G|-000-0-000-0-000-0-000000000-0-----000-0-000-0-000-0-000000000-000---------|
C|-000-0-000-0-000-0-000000000-0-----000-0-000-0-000-0-000000000-000---------|
   *** * *** * *** * ********* *     *** * *** * *** * ********* ***

D|----------------------|
A|----------------------|
F|----------------------|
C|-00-0-0--00-0--00-0---| Repeat X3
G|-00-0-0--00-0--00-0---|
C|-00-0-0--00-0--00-0---|
   ** * *  ** *  ** *

D|---------------------------------------------------------------|
A|---------------------------------------------------------------|
F|-----------------------------------3----8----5/11--------------|
C|-----------------------------------x----x----x-x---------------|
G|----5----6----3--------------------5----6----3/9---------------|
C|-00---00---00---3-00-00-0-00-0--00---00---00------00-00-0-00-0-|
   **   **   **     ** ** * ** *  **   **   **      ** ** * ** *

D|---------------------------|
A|---------------------------|
F|---------------------------|
C|---------------------------|
G|----6----6----5-----6-000--|
C|-00-5-00-5-00-6-0-0-3-000--|
   **   **   **   * *   ***

[Solo]
D|-10h12~-10-----------------------------------10-13-12-10-8~----------------|
A|------------10--8----------------------10-12----------------10-11-13-13^---|
F|------------------------------9~-10-12-------------------------------------|
C|-------------------7-8-10-10^----------------------------------------------|
G|---------------------------------------------------------------------------|
C|---------------------------------------------------------------------------|

D|-10h12p10------------------------------------------------------------------|
A|----------12-10------------------------------------------------------------|
F|----------------12-10------------------------------------------------------|
C|----------------------12-10-12-/14^--------------------------9-11~---------|
G|------------------------------------12-10-10h12p10-8~--10-12---------------|
C|---------------------------------------------------------------------------|

D|-10h12p10------------------------------------------------------------------|
A|----------12-10------------------------------------------------------------|
F|----------------12-10------------------------------------------------------|
C|----------------------12-10-12-/14^----15-14--11~--------------------------|
G|------------------------------------12-------------------------------------|
C|---------------------------------------------------------------------------|

[BREAKDOWN]
D|---------------------------------------------------------------------------|
A|---------------------------------------------------------------------------|
F|--------------------------------2*-------------------------------2*--------|
C|-321-0-321-0-321-0-320000321-0-----321-0-321-0-321-0-320000321-0-----------|
G|-321-0-321-0-321-0-320000321-0-----321-0-321-0-321-0-320000321-0-----------|
C|-321-0-321-0-321-0-320000321-0-----321-0-321-0-321-0-320000321-0-----------|
   *** * *** * *** * ********* *     *** * *** * *** * ********* *

D|---------------------------------------------------------------------------|
A|---------------------------------------------------------------------------|
F|--------------------------------2*-----------------------------------------|
C|-000-0-000-0-000-0-000000000-0-----000-0-000-0-000-0-000000000-000---------|
G|-000-0-000-0-000-0-000000000-0-----000-0-000-0-000-0-000000000-000---------|
C|-000-0-000-0-000-0-000000000-0-----000-0-000-0-000-0-000000000-000---------|
   *** * *** * *** * ********* *     *** * *** * *** * ********* ***

D|----------------------|
A|----------------------|
F|----------------------|
C|-00-0-0--00-0--00-0---| Repeat X3
G|-00-0-0--00-0--00-0---|
C|-00-0-0--00-0--00-0---|
   ** * *  ** *  ** *

D|---------------------------------------------------------------|
A|---------------------------------------------------------------|
F|-----------------------------------3----8----5/11--------------|
C|-----------------------------------x----x----x-x---------------|
G|----5----6----3--------------------5----6----3/9---------------|
C|-00---00---00---3-00-00-0-00-0--00---00---00------00-00-0-00-0-|
   **   **   **     ** ** * ** *  **   **   **      ** ** * ** *

D|---------------------------|
A|---------------------------|
F|---------------------------|
C|---------------------------|
G|----6----6----5-----6-666--|
C|-00-5-00-5-00-6-0-0-3-333--|
   **   **   **   * *   ***

************************************

| *  Palm Mute
| /  Slide up
| x  Dead note
| h  Hammer-on
| ~  Vibrato
| p  Pull-off
| ^  Bend

************************************

            
            
Suggest correction
Creating personal tab
Creating personal tab
You can edit any tab online and save it as your Personal.

You can edit, replace or remove any tab part or add personal notes – all changes will be seen only by you.

Personal tabs can be accessed anytime from any device, even offline.
Learn more »
comments
print report bad tab
7 comments total. Showing first comments.
0 reply
vertebraille 347 Dec 20, 2007 11:47 AM

That's good man! Thanks for tabbing this! Now if you can tab other boo songs then it's perfect. Hha.

0 reply
Ripii 10 Mar 10, 2008 12:21 PM

awesome tab i would love u more if u tab brace legs:$ hihihi

0 reply
Captian Xero 10 Mar 17, 2008 10:48 PM

Could you get me Open Arms To Damnation? That song is Boss man...

guest
You may want to rate the tab now too:
select rating
Wanna post a correction for this tab? Suggest correction